From: Jeff Mutt 
Subject: Dying To Know by PENNYWISE


intro(or atleast the last part of the intro... I can't quite seem to get 
the other part of the intro... but I'm sure someone out there will be 
able to figure it out and post it with this)

e-|-----------------------------------------------|
B-|-----5-5-6-6-5-----5-5-6-6-5-----5-5-6-6-5-----|
G-|-7-7-----------7-7-----------7-7-----------7/1-|
D-|-----------------------------------------------|
A-|-----------------------------------------------|
E-|-----------------------------------------------|

verse:
e-|-----------------------------------------------------|
B-|-----------------------------------------------------|
G-|-7-7-7-10-5-5-5-5-----------------------10-10-10-10--|
D-|-7-7-7-10-5-5-5-5-7-7-6-5-5-5-7-3-3-3-3-10-10-10-10--|
A-|-5-5-5--8-3-3-3-3-7-7-6-5-5-5-7-3-3-3-3--8--8--8--8--|
E-|------------------5-5-4-3-3-3-5-1-1-1-1--------------|

chorus:
e-|--------------------------------------|
B-|--------------------------------------|
G-|-7-7-7-7-5-5-5-5---------10-10-10-10--|
D-|-7-7-7-7-5-5-5-5-5-5-5-5-10-10-10-10--|
A-|-5-5-5-5-3-3-3-3-5-5-5-5--8--8--8--8--|
E-|-----------------3-3-3-3--------------|


this could be considered the bridge or just part of the chorus...
e-|-----------------------------|
B-|-----------------------------|
G-|-7-7-7-7-7-7-7-9-9-9-9-9-9-9-|
D-|-7-7-7-7-7-7-7-9-9-9-9-9-9-9-|
A-|-5-5-5-5-5-5-5-7-7-7-7-7-7-7-|
E-|-----------------------------|


I guess the outro
e-|-------------------------------------------------|
B-|-------------------------------------------------|
G-|-7-7-7-7-7-7-5-5-5-5-5-5-------------------------|
D-|-7-7-7-7-7-7-5-5-5-5-5-5-5-5-5-5-5-5-3-3-3-3-3-3-|
A-|-5-5-5-5-5-5-3-3-3-3-3-3-5-5-5-5-5-5-3-3-3-3-3-3-|
E-|-------------------------3-3-3-3-3-3-1-1-1-1-1-1-|


the solo is just not happening.... I've got parts of it figured out 
but I'll work on it some other day...
transcribed by rambozo [email protected]


Текст, аккорды и табулатура для песни "Dying To Know", исполняет "Pennywise".
Используемые в песне аккорды можно найти в разделе Как брать аккорды. Аккорды для шестиструнной гитары. Другие песни можно найти на нашем сайте, воспользовавшись алфавитным указателем вверху страницы.


Слушать онлайн Dying to Know


PennywiseDying to Know на Яндекс.Музыке


 
Ошибка в тексте? Выделите ошибку и нажмите Ctrl+Enter