--------------------------------------------
date with destiny / pennywise
--------------------------------------------

tabbed by carlos pino

    verse
G]---------------------------------------------------------------------------
D]---------------------------------------------------------------------------
A]-5-5-5-5--8-8-8-8--3-3-3-3--5-5-8-10-8------------------------
E]---------------------------------------------------------------------------

    chorus                      
G]---------------------------------------------------------------------------
D]---------------------------------------------------------------------------
A]-5-3-8-8-8----3-5-5-3-8-8-8------8-5-5-3-8-8-8----3-5-5-3-8
E]---------------5--------------------5-5--------------------5--------------

G]----------------¦-----------------------------------------------------------
D]----------------¦-----------------------------------------------------------
A]--3-5-5-3-8-¦-8-8-8-8--3-3-3-3-5-5-3-3-8-8-7-7-5-5---------
E]----------------¦-----------------------------------------------------------

G]---------------------------------------------------------------------------
D]---------------------------------------------------------------------------
A]-3-3-8-8-7-7-8-8-8-8-3-3-3-3-5-5-3-3-8-8-7-7-5-5-3-3-8-8-7-7
E]---------------------------------------------------------------------------

G]----------------------------¦-----------------------------------------------
D]----------------------------¦-----------------------------------------------
A]-1-1-1-1-1-1-1-1-3-3-¦-3-3-3-3-3-3--5-(x 16)-3-3-3-3------
E]----------------------------¦-----------------------------------------------
   
    outro
G]---------------------------------------------------------------------------
D]---------------------------------------------------------------------------
A]-8-8-8-8-8-8-8-8-10-10-10-10-10-10-10--5(x 12)---5-5-5-5-8-8-8-8-8-8-8-8-10-10-10-10-10-10-10-10
E]---------------------------------------------------------------------------



Текст, аккорды и табулатура для песни "Date With Destiny", исполняет "Pennywise".
Используемые в песне аккорды можно найти в разделе Как брать аккорды. Аккорды для шестиструнной гитары. Другие песни можно найти на нашем сайте, воспользовавшись алфавитным указателем вверху страницы.


Слушать онлайн Date With Destiny


PennywiseDate With Destiny на Яндекс.Музыке


 
Ошибка в тексте? Выделите ошибку и нажмите Ctrl+Enter