-----------------------------
broken / pennywise
-----------------------------

tabbed by carlos pino

    intro :fisrt part............intro.2nd part
G]--------------------------------------------¦--------------------------------------------
D]-----------------7-6---------6-4-4-6-7-¦--------------------------------------------
A]-4-4-4-4-4-4------7-7-7---------------¦-------------------------------------6-7--
E]---------------------------------------------¦-4-4-x-x-4-4-x-x-4-4-x-x-7--------

    verse                       
G]---------------------------------------------------------------------------
D]---------------------------------------------------------------------------
A]-----------------------------------4-4-6-7------------------------------
E]-4-4-4-4-4-4-4-4--7-7-7-7-----------------------------------------

    chorus
G]---------------------------------------------------------------------------
D]---------------------------------------------------------------------------
A]-----------------------------------4-4-4-4------------------------------
E]-4-4-4-4-4-4-4-4--7-7-7-7-----------------------------------------





Текст, аккорды и табулатура для песни "Broken", исполняет "Pennywise".
Используемые в песне аккорды можно найти в разделе Как брать аккорды. Аккорды для шестиструнной гитары. Другие песни можно найти на нашем сайте, воспользовавшись алфавитным указателем вверху страницы.


Слушать онлайн Broken


PennywiseBroken на Яндекс.Музыке


 
Ошибка в тексте? Выделите ошибку и нажмите Ctrl+Enter