***this is der best song, i saw it in here but noticed
some small minor mitstakes and what not, so here is the real one!

if there is anything wornge email me  ryan Sem= [email protected] 
STND TUNING

***INTRO---(BASS)PLAY TWICE
the intro is done on bass and still plays through the whole song 
|---------------------------------------------------------------|
|---------------------------------------------------------------| 
|---------------------------------------------------------------|
|---------------------------------------------------------------|
|---------------------------------------------------------------|
|-7-7-7-7-7-7-7-7--10-9---5-5-5-5-5-5-5-5-5--10-10-5-10-9---7---|
 

***1st verse PLAY TWICE
this fisrt verse is in bass
|---------------------------------------------------------------|
|---------------------------------------------------------------| 
|---------------------------------------------------------------|
|---------------------------------------------------------------|
|---------------------------------------------------------------|
|-7-7-7-7-7-7-7-7--10-9---5-5-5-5-5-5-5-5-5--10-10-5-10-9---7---|
To all my friends present past and beyond, especially those who weren't with us  
too long life is the most precious thing you can lose
while you were here fun was never ending, 
laugh a minute only the beginning canton, colvin, nichols,this one's for you.


***CHORUS     PLAY TWICE
this is done with a medium distortion
|---------------------------------------------------------------|
|---------------------------------------------------------------| 
|---------------------------------------------------------------|
|----7-7-7-7-7-7-7-7-10-9---5-5-5-5-5-5-5-5-5-10-9-10-9---7-----|
|----7-7-7-7-7-7-7-7-10-9---5-5-5-5-5-5-5-5-5-10-9-10-9---7-----|
|----5-5-5-5-5-5-5-5--8-7---3-3-3-3-3-3-3-3-3--8-7--8-7---5-----|
wooah wooooahahoh .....


****VERSE 2                 PLAY TWICE
|---------------------------------------------------------------|
|---------------------------------------------------------------| 
|---------------------------------------------------------------|
|-------7-7-7-7-7-7-7-7-10-9---5-5-5-5-5-5-5-5-5-10-5-10-9---7--|
|-------7-7-7-7-7-7-7-7-10-9---5-5-5-5-5-5-5-5-5-10-5-10-9---7--|
|-------5-5-5-5-5-5-5-5--8-7---3-3-3-3-3-3-3-3-3--8-3--8-7---5--|
	  palm muted		  palm muted
ever get the feeling you can't go on just remember whose  
side it is that you're on you've got friends with you 'till the end
if you're ever in a tough situation we'll be 
there with no hesitation brotherhood's our rule that cannot bend

***CHORUS                  PLAY TWICE
|---------------------------------------------------------------|
|---------------------------------------------------------------| 
|---------------------------------------------------------------|
|----7-7-7-7-7-7-7-7-10-9---5-5-5-5-5-5-5-5-5-10-9-10-9---7-----|
|----7-7-7-7-7-7-7-7-10-9---5-5-5-5-5-5-5-5-5-10-9-10-9---7-----|
|----5-5-5-5-5-5-5-5--8-7---3-3-3-3-3-3-3-3-3--8-7--8-7---5-----|
wooah wooooahahoh .....

****VERSE 3           PLAY TWICE
|---------------------------------------------------------------|
|---------------------------------------------------------------| 
|---------------------------------------------------------------|
|-------7-7-7-7-7-7-7-7-10-9---5-5-5-5-5-5-5-5-5-10-5-10-9---7--|
|-------7-7-7-7-7-7-7-7-10-9---5-5-5-5-5-5-5-5-5-10-5-10-9---7--|
|-------5-5-5-5-5-5-5-5--8-7---3-3-3-3-3-3-3-3-3--8-3--8-7---5--|
	  palm muted		  palm muted
when you're feeling too close to the bottom you know  
who it is you can count on someone will pick you up again
we can conquer any-thing together all of us are bonded forever 
if you die I die that's the way it is 


***CHORUS              PLAY TWICE
|---------------------------------------------------------------|
|---------------------------------------------------------------| 
|---------------------------------------------------------------|
|----7-7-7-7-7-7-7-7-10-9---5-5-5-5-5-5-5-5-5-10-9-10-9---7-----|
|----7-7-7-7-7-7-7-7-10-9---5-5-5-5-5-5-5-5-5-10-9-10-9---7-----|
|----5-5-5-5-5-5-5-5--8-7---3-3-3-3-3-3-3-3-3--8-7--8-7---5-----|
wooah wooooahahoh ....

****VERSE 4       PLAY TWICE
|---------------------------------------------------------------|
|---------------------------------------------------------------| 
|---------------------------------------------------------------|
|-------7-7-7-7-7-7-7-7-10-9---5-5-5-5-5-5-5-5-5-10-5-10-9---7--|
|-------7-7-7-7-7-7-7-7-10-9---5-5-5-5-5-5-5-5-5-10-5-10-9---7--|
|-------5-5-5-5-5-5-5-5--8-7---3-3-3-3-3-3-3-3-3--8-3--8-7---5--|
	  palm muted		  palm muted
To all my friends present past and beyond to all those who weren't with us  
too long life is the most precious thing you can lose
while you were here fun was never ending laugh a minute only the beginning 
canton, colvin, nichols,  his one's for you.
 
***CHORUS                  PLAY TWICE
|---------------------------------------------------------------|
|---------------------------------------------------------------| 
|---------------------------------------------------------------|
|----7-7-7-7-7-7-7-7-10-9---5-5-5-5-5-5-5-5-5-10-9-10-9---7-----|
|----7-7-7-7-7-7-7-7-10-9---5-5-5-5-5-5-5-5-5-10-9-10-9---7-----|
|----5-5-5-5-5-5-5-5--8-7---3-3-3-3-3-3-3-3-3--8-7--8-7---5-----|
wooah wooooahahoh ..... 

***SOLO TYPE THING   PLAY TWICE
Play without the bass and no percussion, there is no lyrics
|---------------------------------------------------------------|
|---------------------------------------------------------------| 
|---------------------------------------------------------------|
|-------7-7-7-7-7-7-7-7-10-9---5-5-5-5-5-5-5-5-5-10-5-10-9---7--|
|-------7-7-7-7-7-7-7-7-10-9---5-5-5-5-5-5-5-5-5-10-5-10-9---7--|
|-------5-5-5-5-5-5-5-5--8-7---3-3-3-3-3-3-3-3-3--8-3--8-7---5--|

***OUTRO PLAY ONCE
|---------------------------------------------------------------|
|---------------------------------------------------------------| 
|---------------------------------------------------------------|
|----7-7-7-7-7-7-7-7-10-9---5-5-5-5-5-5-5-5-5-10-9-10-9---7-----|
|----7-7-7-7-7-7-7-7-10-9---5-5-5-5-5-5-5-5-5-10-9-10-9---7-----|
|----5-5-5-5-5-5-5-5--8-7---3-3-3-3-3-3-3-3-3--8-7--8-7---5-----|
wooah wooooahahoh 
|---------------------------------------------------------------|
|---------------------------------------------------------------| 
|---------------------------------------------------------------|
|----7-7-7-7-7-7-7-7-10-9---5-5-5-5-5-5-5-5-5-10-9-10-9---7-----|
|----7-7-7-7-7-7-7-7-10-9---5-5-5-5-5-5-5-5-5-10-9-10-9---7-----|
|----5-5-5-5-5-5-5-5--8-7---3-3-3-3-3-3-3-3-3--8-7--8-7---5-----|
wooah wooooahahoh                                                LET RING


Текст, аккорды и табулатура для песни "Bro Hymn", исполняет "Pennywise".
Используемые в песне аккорды можно найти в разделе Как брать аккорды. Аккорды для шестиструнной гитары. Другие песни можно найти на нашем сайте, воспользовавшись алфавитным указателем вверху страницы.


Слушать онлайн Bro Hymn


PennywiseBro Hymn на Яндекс.Музыке


 
Ошибка в тексте? Выделите ошибку и нажмите Ctrl+Enter