T1: Robert Barry, [email protected], Pennywise, Alien, 6/8/99 

  S1: Easy and fun to play, Intro 
  G5 D#5 
  E||------------------------|-------------------------| 
  B||------------------------|-------------------------| 
  G||--------------2/-3------|--8--8--8--8-------------| 
  D||--5--5--5--5------------|--8--8--8--8--8/-10------| 
  A||--5--5--5--5------------|--6--6--6--6-------------| 
  E||--3--3--3--3------------|-------------------------| 
  Verse A 
  G5 D5 D#5 A#5 
  E||--------------------------|--------------------------| 
  B||--------------------------|--------------------------| 
  G||--------------7--7--7--7--|--8--8--8--8--------------| 
  D||--5--5--5--5--7--7--7--7--|--8--8--8--8--8--8--8--8--| 
  A||--5--5--5--5--5--5--5--5--|--6--6--6--6--8--8--8--8--| 
  E||--3--3--3--3--------------|--------------6--6--6--6--| 


  G5 D5 D#5 G5 D5 D#5D5 
  --------------------------|--------------------------| 
  --------------------------|--------------------------| 
  --------------7--7--7--7--|--8--8--8--8-----7--8--7--| 
  --5--5--5--5--7--7--7--7--|--8--8--8--8--5--7--8--7--| 
  --5--5--5--5--5--5--5--5--|--6--6--6--6--5--5--6--5--| 
  --3--3--3--3--------------|--------------3-----------| 


  G5 D5 D#5 A#5 
  --------------------------|--------------------------| 
  --------------------------|--------------------------| 
  --------------7--7--7--7--|--8--8--8--8--------------| 
  --5--5--5--5--7--7--7--7--|--8--8--8--8--8--8--8--8--| 
  --5--5--5--5--5--5--5--5--|--6--6--6--6--8--8--8--8--| 
  --3--3--3--3--------------|--------------6--6--6--6--| 


  G5 D5 D#5 A#5 
  --------------------------|-----------------------| 
  --------------------------|-----------------------| 
  --------------7--7--7--7--|--8--8--8--8-----------| 
  --5--5--5--5--7--7--7--7--|--8--8--8--8--8--------| 
  --5--5--5--5--5--5--5--5--|--6--6--6--6--8--------| 
  --3--3--3--3--------------|--------------6--------| 
  Verse B Same as Verse A but Palm Muted 

  Chorus 
  D# F 
  E||-------------------------|--------------------------------| 
  B||--8----8--8--8--8--8--8--|--10----10--10--10--10--10--10--| 
  G||--8----8--8--8--8--8--8--|--10----10--10--10--10--10--10--| 
  D||--8----8--8--8--8--8--8--|--10----10--10--10--10--10--10--| 
  A||--6----6--6--6--6--6--6--|--8-----8---8---8---8---8---8---| 
  E||-------------------------|--------------------------------| 


  D Gm 
  -------------------------|-------------------------|| 
  --7----7--7--7--7--7--7--|-------------------------|| 
  --7----7--7--7--7--7--7--|--3----3--3--3--3--3--3--|| 
  --7----7--7--7--7--7--7--|--5----5--5--5--5--5--5--|| 
  --5----5--5--5--5--5--5--|--5----5--5--5--5--5--5--|| 
  -------------------------|--3----3--3--3--3--3--3--|| 

  Thats pretty much it 


Текст, аккорды и табулатура для песни "Alien", исполняет "Pennywise".
Используемые в песне аккорды можно найти в разделе Как брать аккорды. Аккорды для шестиструнной гитары. Другие песни можно найти на нашем сайте, воспользовавшись алфавитным указателем вверху страницы.


Слушать онлайн Alien


PennywiseAlien на Яндекс.Музыке


 
Ошибка в тексте? Выделите ошибку и нажмите Ctrl+Enter