Author/Artist: pearl jam
Title: untitled
Album: live alburq
Transcribed by: Saverain
Email: [email protected]

This is what it sounds like to me and if you don't like it
E-mail me
you'll have to find the lyrics somewhere else sorry. I are not to good words
v strum down
^ strum up

-|---------------------------------|--------------------------------|---------
-|--------3--3---3-------3---------|-------3--3---3-------3---------|---------
-|---------------------------0-----|---0----------------------0-----|---------
-|-5--5--------5---4-4-4---4---4-5-|-5---5------5---4-4-4---4---4-5-|---------
-|---------------------------------|--------------------------------|---------
-|---------------------------------|--------------------------------|---------
 introv   ^  ^ v ^ v ^ v ^ v ^ v ^  verse                                     

-|----------------|-----------------------------------------------------------
-|-3--5-----------|-----------------------------------------------------------
-|-------4--0-----|-----------------------------------------------------------
-|-------------5--|-----------------------------------------------------------
-|----------------|-----------------------------------------------------------
-|----------------|-----------------------------------------------------------
    improv between song     if you like this tab see given to fly live


Текст, аккорды и табулатура для песни "Untitled", исполняет "Pearl Jam".
Используемые в песне аккорды можно найти в разделе Как брать аккорды. Аккорды для шестиструнной гитары. Другие песни можно найти на нашем сайте, воспользовавшись алфавитным указателем вверху страницы.


 
Ошибка в тексте? Выделите ошибку и нажмите Ctrl+Enter