intro/verse:
--------------------------------------0------2--0-----------------------------
-3--3---3--3-----------3---3----3---3---3----3--3--3------3--3--2-------------
-2----2----2-------------0-0---0----2--------2-----2----0----0--0-------------
-0---------4--4-2-0-----------2-----0-----4--4--2--0---------2--2-------------
---------------------2-------0------------------------2------0--0-------------
------------------------------------------------------------------------------
                                                                              

'chorus':
----3--3---7---7--5--3------------------------3-------------------------------
---3---3---3---3--3--3--------------------1---0-------------------------------
--4----4---4---4--4--4------0-------0--0--2---0-------------------------------
-0-----0---0---0--0--0----0-------2----2--2---0-------------------------------
------------------------2-----2-3------3--2---2-------------------------------
---------------------------------------3------3-------------------------------
                                                                              

thing:
--8---8-8----8--8------7--7---------------------------------------------------
--8---8-8----8--8------8--8---6--6--6-6----6----------------------------------
--7---7-7----7--7-------------7--7--7-7----0----------------------------------
--0---0-0----------------------------------7----------------------------------
-----------8---------7------5------------8------------------------------------
------------------8-----------------------------------------------------------


Текст, аккорды и табулатура для песни "Thumbing My Way", исполняет "Pearl Jam".
Используемые в песне аккорды можно найти в разделе Как брать аккорды. Аккорды для шестиструнной гитары. Другие песни можно найти на нашем сайте, воспользовавшись алфавитным указателем вверху страницы.


 
Ошибка в тексте? Выделите ошибку и нажмите Ctrl+Enter