Here is my tab of Pearl Jam's No Way.

Pearl Jam.
Album: Yield.
Tab: No Way
Words & Music: Stone Gossard
Tabbed by: Drake. ([email protected])

 My first tab ever:)

Drop D tuning

 Intro
E:--------------------------------
B:--------------------------------
G:--------------------------------
D:--------9--9--9--9--5-5-5-5-5-5-
A:-11/-0--9--11-11-9--5-5-5-5-5-5-
D:--------9--9--9--9--5-5-5-5-5-5-

 Verse
E:-------------------------
B:-------------------------
G:-------------------------
D:-9--9--9--9--5-5-5-5-5-5-
A:-9--11-11-9--5-5-5-5-5-5-
D:-9--9--9--9--5-5-5-5-5-5-ect.


 Lets call it an angel
   G#5      D5       E5       F5      G#5
E:--------------------------------------
B:--------------------------------------
G:--------------------------------------
D:-6-6-6-6--0-0-0-0--2-2-2-2--3-3-3-36-
A:-6-6-6-6--0-0-0-0--2-2-2-2--3-3-3-36-
D:-6-6-6-6--0-0-0-0--2-2-2-2--3-3-3-36-

 Quiet part
E:------------------------------------------
B:------------------------------------------
G:-3--3-3--2-----------3--3-3--2------------
D:-0--0-0--0--3---3-5--0--0-0--0-----5-3-5-3
A:------------------------------------------
D:------------------------------------------

E:----------------------------------
B:----------------------------------
G:-3--3-3--2--------2-----0--0-0--2-
D:-0--0-0--0--3---3---3---0--0-0--0-
A:----------------------------------
D:----------------------------------

 After this part i get a little confused:( ???

 Then it goes back to the verse part for the outro.

 I'm not trying to make a differance NO WAY.
E:-------------------------
B:-------------------------
G:-------------------------
D:-9--9--9--9--5-5-5-5-5-5-
A:-9--11-11-9--5-5-5-5-5-5-
D:-9--9--9--9--5-5-5-5-5-5-ect.Lyrics

No Way

Here's a token of my openness
Of my need to not disappear
How I'm feeling so revealing
To me, I'll set my mind too clear
I just need someone to be there for me
I just want someone to be there for me

Oh the static in my attic
Shoots down my sciatic nerve
To the ocean of my platitudes
Longitudes, latitudes
It's so absurd
I just need someone to be there for me
I just want someone to be there for me

Cause I've stopped tryin to make a difference
I'm not tryin to make a difference
I'll stop tryin to make a difference
No way

Let's call it an angel


Текст, аккорды и табулатура для песни "No Way", исполняет "Pearl Jam".
Используемые в песне аккорды можно найти в разделе Как брать аккорды. Аккорды для шестиструнной гитары. Другие песни можно найти на нашем сайте, воспользовавшись алфавитным указателем вверху страницы.


 
Ошибка в тексте? Выделите ошибку и нажмите Ctrl+Enter