Leaving Here
		Pearl Jam / The High Numbers

As covered by Pearl Jam on the Covering Them 2 CD. This is my
first attempt at tabbing out a song so bear with me. Someone 
requested this a while back so I thought I'd give it a try. 
Email me at [email protected] if you have any questions or 
corrections.


Intro:

e ------------------------------------------------------------
B ------------------------------------------------------------
G ------6--9---9/11--11--11----6-----6--9--9/11--11--11-------
D ---6--6--9---9/11--11--11----6--6--6--9--9/11--11--11-------
A ---6--4--7---7/9---9---9-----4--6--4--7--7/9---9---9--------
E ---4----------------------------4---------------------------


e --------------------------------------
B --------------------------------------
G ---6-----6--9--9/11--11--11-----------
D ---6--6--6--9--9/11--11--11-----------
A ---4--6--4--7--7/9---9---9------------
E ------4-------------------------------


e ------------------------------------------------------------
B ------------------------------------------------------------
G ---6--4-----6--6--11--11--11--6--6--11--11--11--6--6--11----
D ---6--4--6--6--6--11--11--11--6--6--11--11--11--6--6--11----
A ---4--2--6--4--4--9---9---9---4--4--9---9---9---4--4--9-----
E ---------4--------------------------------------------------


e -------------------------
B -------------------------
G ---11--11--6--6--6--6----
D ---11--11--6--6--6--6----
A ---9---9---4--4--4--4----
E -------------------------

e ------------------------------------------------------------
B ------------------------------------------------------------
G ---6--6--11--11--11--6--6--11--11--11--6--6--11--11--11-----
D ---6--6--11--11--11--6--6--11--11--11--6--6--11--11--11-----
A ---4--4--9---9---9---4--4--9---9---9---4--4--9---9---9------
E ------------------------------------------------------------


e -------------------------
B -------------------------
G ---6--6--6--6------------
D ---6--6--6--6------------
A ---4--4--4--4------------
E -------------------------

Hey fellas have you heard the news?

     (Oh yeah)
e ----------------------------------------
B ----------------------------------------
G ---6--6--9--9--9--11--11--11--6---------
D ---6--6--9--9--9--11--11--11--6---------
A ---4--4--7--7--7--9---9---9---4---------
E ----------------------------------------

The women of this town are being misused

     (Oh yeah)
e ----------------------------------------
B ----------------------------------------
G ---6--6--9--9--9--11--11--11--6---------
D ---6--6--9--9--9--11--11--11--6---------
A ---4--4--7--7--7--9---9---9---4---------
E ----------------------------------------

This is pretty repetitive so I won't tab any further. Just listen
 to the song for the rhythm and the rest of the song. The solos are
in C# Minor Pentatonic I think.

Tabbed by:
Dave Headley
[email protected]


Текст, аккорды и табулатура для песни "Leaving Here", исполняет "Pearl Jam".
Используемые в песне аккорды можно найти в разделе Как брать аккорды. Аккорды для шестиструнной гитары. Другие песни можно найти на нашем сайте, воспользовавшись алфавитным указателем вверху страницы.


 
Ошибка в тексте? Выделите ошибку и нажмите Ctrl+Enter