Last Exit
by Pearl Jam
from the Vitalogy cd
transcribed by kevin gardner
[email protected]

intro and verse riff

------------------
--0----------0----
--0----------0----
--x--0-0--0--x-0--
--3--0-0--0--3-0--
-----2-2--3----2--

chorus
------- ----------------
------- ----------------
------- --10-9-4-4-5-7--
------- --10-9-4-4-5-7--
--2---- --8--7-2-2-3-5--
----2-- ----------------

---------- -------------
---------- -------------
--10-9-4-- --10-9-4-5-7-
--10-9-4-- --10-9-4-5-7-
--8--7-2-- --8--7-2-3-5-
---------- -------------end of backward solo riff
trem pick
--------------- -----------------
--12--10--8--7- --12--10--8--7-8- 
--10--9---7--7- --10--9---7--7-7-
--------------- -----------------
--------------- -----------------
--------------- -----------------


that palm muted thing near the end

-7-       ----7---7--7--
-9-       ----10--9--10-
-7- then  ----7---7--7--
-7-       ----7---7--7--
---       --------------
---       --------------
pound w/palm mute


Текст, аккорды и табулатура для песни "Last Exit", исполняет "Pearl Jam".
Используемые в песне аккорды можно найти в разделе Как брать аккорды. Аккорды для шестиструнной гитары. Другие песни можно найти на нашем сайте, воспользовавшись алфавитным указателем вверху страницы.


 
Ошибка в тексте? Выделите ошибку и нажмите Ctrl+Enter