Artist: pearl jam
Title: green disease
Album: riot act
Transcribed by: rafael salazar

intro/end:
------------------------------------------------------------------------------|
-------5-----5----------------------------------------------------------------|
-----0-----0------------------------------------------------------------------|
-7p5-----5--------------------------------------------------------------------|
------------------------------------------------------------------------------|
------------------------------------------------------------------------------|
                repeat with E>F#>G>A chords over

verse:
------------------------------------------------------------------------------|
--5---9---12---7----------5----9----------------------------------------------|
--6---9---13---8----------6----9----------------------------------------------|
--6---9---13---8----------6----9----------------------------------------------|
--4---7---11---6----------4----7----------------------------------------------|
------------------------------------------------------------------------------|


chorus:
-----0-------0---2---0-------0-----0--2---------------------------------------|
--2--0----2--0---3---0----2--0--2--0--3---------------------------------------|
--2--1----2--1---2---1----2--1--2--1--2--2-4-5-4-2----6-7--7--9---------------|
--2--2----2--2---0---2----2--2--2--2--0---------------7-7--7--7---------------|
--0--2----0--2-------2----0--2--0--2--0---------------0-0--0--0---------------|
-----0-------0-------0-------0-----0------------------------------------------|
                                                     strum A several times


Текст, аккорды и табулатура для песни "Greendisease", исполняет "Pearl Jam".
Используемые в песне аккорды можно найти в разделе Как брать аккорды. Аккорды для шестиструнной гитары. Другие песни можно найти на нашем сайте, воспользовавшись алфавитным указателем вверху страницы.


 
Ошибка в тексте? Выделите ошибку и нажмите Ctrl+Enter