#----------------------------------PLEASE NOTE--------------------------------#
#This file is the author's own work and represents their interpretation of the#
#song. You may only use this file for private study, scholarship, or research.#
#-----------------------------------------------------------------------------#
#-- File created with Instab - http://www.pconline.com/~smcarey/instab.html --#
#-----------------------------------------------------------------------------#

Author/Artist: pearl jam
Title: given to fly live
Transcribed by: Saverain
Email: [email protected]

v stum down
^ strum up
This the live version so I'm not to shure if it is different or not
from the original.  I tryed my best I hope this works for you
Pearl Jam forever



-|----------------------------------------------------------------------------|
-|----------12--8----8-----------------------------12--8----8-----------------|
-|----------0--------0---------------7-7-----------0--------0-----------------|
-|----------------------------------------------------------------------------|
-|-9h10--10-------10---9h10p9-9-7--5------9h10--10-------10---9h10p9-9--5--5--|
-|----------------------------------------------------------------------------|
  intro  v  ^   ^ v  ^ v      v ^  v ^ v                                v  v

------5------------7p5------------|-------------------------------------------|
---------5-5--7--7-----7--5--7/12-|----------12--8----8-----------------------|
--7-7-----------------------------|----------0--------0---------------7-7-----|
----------------------------------|-------------------------------------------|
----------------------------------|-9h10--10-------10---9h10p9-9-7--5---------|
----------------------------------|-------------------------------------------|
  ^ v ^  v v  v  v v   ^  v  v     verse

----------------------------------------5------------5----------|-------------|
----------12--8----8-----------------------5-5--7--7----5-5--7--|-------------|
----------0---0----0----------------7-7-------------------------|-------------|
----------------------------------------------------------------|-------------|
-9h10--10-------10---9h10p9-9--5--5-----------------------------|-------------|
----------------------------------------------------------------|-------------|
                                        ^  v v  v  v ^  v v  v

-|-----------------------------------------5-----------------5-5--5--5-5-|-5--|
-|----------12--8----8------------------------5-5--7--5-5-5--5-5--5--7-7-|-5--|
-|----------0--------0-----------------7-7---------7--7-7-7--7-7--7--7-7-|-7--|
-|---------------------------------------------------------------------7-|-7--|
-|-9h10--10-------10---9h10p9-9--5--5------------------------------------|-5--|
-|-----------------------------------------------------------------------|----|
   pre chorus                                         v ^ v  ^ v  ^  ^ v

-5-5--5-5--5--5--5-5-5-5--5-5--5--5--5-|-3-3-3-3-3-3-3-3-3--3-3--3-3-3--3-3-3-|
-5-5--5-5--5--7--7-5-5-5--5-5--5--7--7-|-3-3-3-3-3-3-3-3-3--3-3--3-3-3--3-3-3-|
-7-7--7-7--7--7--7-7-7-7--7-7--7--7--7-|-0-0-0-0-0-0-0-0-0--0-0--0-0-0--0-0-0-|
-7-7--7-7--7--7--7-7-7-7--7-7--7--7--7-|-0-0-0-0-0-0-0-0-0--0-0--0-0-0--0-0-0-|
-5-5--5-5--5--5--5-5-5-5--5-5--5--5--5-|-2-2-2-2-2-2-2-2-2--2-2--2-2-2--2-2-2-|
-5-5--5-5--5-------5-5-5--5-5--5--5--5-|-3-3-3-3-3-3-3-3-3--3-3--3-3-3--3-3-3-|
   continue rythm             to chorus  v ^ v ^ v ^ v ^ v  v ^  ^ v ^  ^ v ^

-3-3-3--3-3-3--3-3--3-3--------------------------------|----------------------|
-3-3-3--3-3-3--3-3--3-3-----7-7--7-x-x----7-7--7---7---|----------------------|
-0-0-0--0-0-0--0-0--0-0--7--7-7--7-x-x-7--7-7--7-7-7-7-|----------------------|
-0-0-0--0-0-0--0-0--0-0--7--7-7--7-x-x-7--7-7--7-7-7-7-|-10-10--10-10--10-10-|
-2-2-2--2-2-2--2-2--2-2--5--5-5--5-x-x-5--5-5--5-5-5-5-|-10-10--10-10--10-10-|
-3-3-3--3-3-3--3-3--3-3--5--5-5--5-x-x-5--5-5--5-5-5-5-|-8--8---8--8---8--8--|
 ^ v ^  ^ v ^  ^ ^  ^ ^  v  v v  v v ^ v  v v  v v ^ v   v  ^   v  v   ^  v

------------------------------------------------------------------|-----------|
---------------------------------------7-7--7-x-x----7-7--7---7---|-5--5-5--5-|
------------------------------------7--7-7--7-x-x-7--7-7--7-7-7-7-|-7--7-7--7-|
-5--10-10--10-10--10-10-999--------7--7-7--7-x-x-7--7-7--7-7-7-7-|-7--7-7--7-|
-5--10-10--10-10--10-10-999-7-7-5--5--5-5--5-x-x-5--5-5--5-5-5-5-|-5--5-5--5-|
-3--8--8---8--8---8--8--777-5-5-3--5--5-5--5-x-x-5--5-5--5-5-5-5-|-5--5-5--5-|
     v  ^   v  v   ^  v  v^v v ^ v               second time end >  v  ^ v v

---------|------|------|-7------------7---8-7---|------7------------7---8-7---|
--7---3--|------|------|---8-6-8--8p6---8-------|--------8-6-8--8p6---8-------|
--7--5--|------|------|------------------------|-----------------------------|
--7--5--|------|------|------------------------|-----------------------------|
--5---3--|------|------|------------------------|-----------------------------|
--5---3--|------|------|------------------------|-----------------------------|
  ^   v    verse chorus second    interlude end   outro^ v v v  v   v ^ ^ v

-7------------7---8-7--7-----------------------------------------------------|
---8-6-8--8p6---8--------8-6--6/8--3--3------------------------------------|
------------------------------------------4--4/0-0--4/0-0--------------------|
-----------------------------------------------------------------------------|
-----------------------------------------------------------------------------|
-----------------------------------------------------------------------------|


Текст, аккорды и табулатура для песни "Given To Fly Live", исполняет "Pearl Jam".
Используемые в песне аккорды можно найти в разделе Как брать аккорды. Аккорды для шестиструнной гитары. Другие песни можно найти на нашем сайте, воспользовавшись алфавитным указателем вверху страницы.


 
Ошибка в тексте? Выделите ошибку и нажмите Ctrl+Enter