composer: Gab Chee Kee
tabbed by: Eron Reyes
e-mail me: [email protected]

intro:
CM7       FM7
tayo na nga
CM7       FM7        Em7         Am7
sino pa bang hinihintay natin dito
 Dm7          G7
naiinip na ako
CM7       FM7
sige na nga
CM7         FM7        Em7         Am7
apakan mo nang silinyador ng auto mo
 Dm7              G7
iwanan na natin ang mundong (ito)

adlib:
e------------------------------------
b------------------------------------
g-5-5-5---3-2------------------------
d-------5-----0-3--3-3-3-2-----------
a--------------------------3-0-pause-
e------------------------------------

e----------------------------------
b----------------------------------
g-5-5-5---3-2----------------------
d-------5------3-2---2-2h3-0-pause-
a------------------3---------------
e----------------------------------

e------------------------------------
b------------------------------------
g-5-5-5---3-2------------------------
d-------5-----0-3--3-3-3-2-----------
a--------------------------3-0-pause-
e------------------------------------

e----------------------
b----------------------
g-5-5-5---3-2----------
d-------5------3-pause-
a----------------------
e----------------------

stanza1:
             C Em F G
tayo na sa beach tayo na't mag swimming
bilisan mo na gusto kong mag sun-bathing
time to relax time to go slow
makinig kay pareng bob at sa sasabihin nito
(repeat adlib)

stanza2: (do stanza1 chords)
pagsapit ng dilim lumalamig na ang hangin
sindihan mo na ang bonfire natin
time to relax time to go slow
maupo ka na lang at panoorin ang mundo

bridge:
 Em                         Dm
kalimutan muna natin ang trabaho
masisira na ang ating ulo
   G                         Dm
kailan pa ba naman huling tumambay
      G                             Dm-Em
kay tapusin ang walang hanggang paghihintay
(repeat adlib)

solo chords:
CM7 FM7 CM7 FM7 Em7 Am7 Dm7 G7

(repeat intro with fast strumming)
(repeat adlib then strum once CM7)

END!


Текст, аккорды и табулатура для песни "Swimming Beach", исполняет "Parokya Ni Edgar".
Используемые в песне аккорды можно найти в разделе Как брать аккорды. Аккорды для шестиструнной гитары. Другие песни можно найти на нашем сайте, воспользовавшись алфавитным указателем вверху страницы.


 
Ошибка в тексте? Выделите ошибку и нажмите Ctrl+Enter