Song:Please don't touch my birdie
Artist:Parokya ni edgar
Tabbed by:shortysphere
standard tuning(eBGDAE)


Intro:
   A		      E			  F#m		       E 
e|-------------0-------------------------------------------------4-----4h5-4-----
B|-----2---3----------------------0---------------2-3-2h3-0--------5---------5---
G|-------2---2----2-------1---2-----------------2------------------------------4-
D|---2----------------------2---2---2---------4----------------------------------
A|-0--------------------2-------------------4------------------------------------
E|--------------------0-------------------2--------------------0-----0-----------


   D		     A 		       F#m		  E
e|---2-----2-----------0-----0---------------------------------0---|
B|-----3-----3---3-------2-----2---2-----------2-3-2h3-0------0----|
G|-------2-----2-----------2-----2-----------2---------------3-----|
D|-0---------------------------------------4----------------2------|
A|-------------------0-------------------4-----------------2-------|
E|-------------------------------------2------------------0--------|


Stanza I

A	   E
Kapag ako'y nababato
F#m	  E
pinaglalaruan ko ang birdie ko
F#m	    E
ang cute-cute naman kasi
  D	   	E
kaya ko siya binili



Stanza II
(do chords stanza I)
		   
My birdie is my best friend 
 (my best friend)
Ang dami naming maliligayang sandali
madalas ko siyang pinapakain ng bird sid
mahal kita o birdie ko, huwag kang lalayo


Chorus I:

A	     E
don't touch my birdie
	     F#m
(dont touch my birdie)
   E
resist temptation please
F#m	     E
you don't have to grab my birdie
D	     E		      
just call it, and it will come



Adlib:
(distortion)
A-E-F#m-E-
F#m-E-D-E-

e|------------------------------------------19^--17-16-16h17-16-----------------------
B|-------14----15----17-----(17^)-17--1715---------------------17-(17^)--(17^)-14-12-
G|-13/14----14----14----14------------------------------------------------------------
D|------------------------------------------------------------------------------------
A|------------------------------------------------------------------------------------
E|------------------------------------------------------------------------------------

e|--------------------------------9-10-12-10-9----------------
B|-9/10-9-10/12-(12^)10--10-9-10--------------12-10-9--------
G|----------------------------------------------------11-9----
D|------------------------|------------------------------|----
A|------------------------|------------------------------|----
E|------------------------********************************----
				^(fast)^

e|-----------------------------5px-7px-9px-10px-12v~--|
B|---------------------7-5-5h7------------------------|
G|-----------7-6-7-7/9--------------------------------|
D|-6/7-6-7-9------------------------------------------|
A|----------------------------------------------------| 
E|----------------------------------------------------|



Stanza III
(do chords of stanza I)

ang birdie ko ay nakakatuwa
parang cobra na mahilig mantuka
pag nilabas na mula sa kulungan
tuloy-tuloy na ang aming kasiyahan




Stanza IV
(do chords of stanza I)

di naman ako madamot talaga
ayoko lang na hinahawakan siya ng iba
ang birdie ko ay medyo masungit
konting hawak lang siya ay magagalit




Chorus II:

A	     E
don't touch my birdie
	     F#m
(dont touch my birdie)
   E
resist temptation please
F#m	     E
you don't have to grab my birdie
D	     E		      
just call it, and it will come
A-E	F#m-E-
it will come




Bridge:
D		C#m
wag ka sanang magalit sa akin
Bm				A
tuwing ang birdie ang birdie ko ay aking hihimasin
D	   A
sana maunawaan mo
F#m
mahal na mahal ko ang birdie ko 
E
pati ang itlog nito




Repeat chorus I(2x)

Outro:
(distortion)
A-E-F#m-E
F#m-E-D-E

e|----------------------------------------------------------------------------------12----12-
B|---------------------------------------(14^)-(14^)-(14^)-1412-10----10h12-10-9h10--9h10---
G|-----6---7---9---9/11^--119-9/11-9/11----------------------------11-----------------------
D|-6/7---7---7---7---------------------------------------------------------------------------
A|-------------------------------------------------------------------------------------------
E|-------------------------------------------------------------------------------------------

e|---------9-10-9/10-------------------------------------------------5px-7px-9px-10px-12~----
B|------10-----------10-----------------------9-9h10-9-------------9-------------------------
G|-9-11-----------------11^-9------------9-11----------9-9/11-9-11---------------------------
D|----------------------------11^-9--11^-----------------------------------------------------
A|-------------------------------------------------------------------------------------------
E|-------------------------------------------------------------------------------------------


Legend:

| h   Hammer-on
| p   Pull-off
| x   Mute note
| /   Slide-up
|    Slide-down
|( ^) Full bend
| ^   Bend note
| ~   Let ring
| v   Vibrato


[email protected]
[email protected]______


Текст, аккорды и табулатура для песни "Please Dont Touch My Birdie", исполняет "Parokya Ni Edgar".
Используемые в песне аккорды можно найти в разделе Как брать аккорды. Аккорды для шестиструнной гитары. Другие песни можно найти на нашем сайте, воспользовавшись алфавитным указателем вверху страницы.


 
Ошибка в тексте? Выделите ошибку и нажмите Ctrl+Enter