BAND:PAROKYA NI EDGAR
 SONG:PLEASE,DON'T TOUCH MY BIRDIE
 TABBED BY:KENNETH CANJA

   THIS IS ONLY AN INTRO OF THE SONG BUT I AM SURE MY TAB IS CORRECT.

    A                E                F#m                E
 E|------------------------------------------------------------3P0--------|
 B|-------2---3---5---------------------------2-3-2H3P2----3-------3------|
 G|-----2---2---2----------1---2---4--------2----------------1-------1----|
 D|---2------------------2---2---2--------4----------------------------2--|
 A|-0------------------2----------------4---------------------------------|
 E|------------------0----------------2------------------0----------------|

    D                A                F#m                    E
 E|---2-----2----------0-----0-------------------------------0--|
 B|-----3-----3---3------2-----2---2----------2-3-2H3P2-0-2--0--|
 G|-------2-----2----------2-----2----------2----------------1--|
 D|-0-------------------------------------4------------------2--|
 A|------------------0------------------4--------------------2--|
 E|-----------------------------------2----------------------0--|


   OK,ENJOY!

   [email protected]


Текст, аккорды и табулатура для песни "Please Dont Touch My Birdie", исполняет "Parokya Ni Edgar".
Используемые в песне аккорды можно найти в разделе Как брать аккорды. Аккорды для шестиструнной гитары. Другие песни можно найти на нашем сайте, воспользовавшись алфавитным указателем вверху страницы.


 
Ошибка в тексте? Выделите ошибку и нажмите Ctrl+Enter