song: nakaw ang wallet ko
band: parokya ni edgar
tabbed by jeff h.([email protected])
                  hey, ito yung plucking at solo. Enjoy!

intro:(clean passage)
     G           D                C
e-3--3-----3|-2----3-2-3|-0------0-------------0|
b-3----3----|-3--3------|-1--0h1---1---1--0h1--1|
g-0------0--|-2---------|-0----------0---------0|
d-0---------|-0---------|-2--------------------2|
a-2---------|-----------|-3--------------------3|
e-3---------|-----------|-0--------------------0|

e--------------|
b--------------|
g--------------|
d------7~---5~-|
a--5~--5~---3~-|
e--3~----------|

1st verse: same as intro but without powerchords

mama, anong pangalan nyo?
saan na rin ang bahay mo
makikikain lang ako
kapag nanakaw ang wallet ko

chorus: same as intro

nak-nak-nakaw ang wallet ko
nak-nak-nakaw ang wallet ko
nak-nak-nakaw ang wallet ko
nak-nak-nakaw ang wallet ko...oooooo yeahhh

solo:(distortion)
e----------------------------------------------------------|
b--------------------15-----------------------13s15--13-12-|
g--11s12--14^--12-14-----14^-12-12~---------12-------------|
d---------------------------------------s14----------------|
a----------------------------------------------------------|
e----------------------------------------------------------|

e---------------------------------------------15--------|
b--13-12-13s15~----13-12-13--13p12------12-13-----13-12-|
g-------------------------------------------------------|
d----------------------------------14~------------------|
a-------------------------------------------------------|
e-------------------------------------------------------|

e--------15-17^-17-17^-17^-15~---22^^-20-19-20--22^-20-19-20--19-----|
b----s17---------------------------------------------------------17~-|
g--------------------------------------------------------------------|
d--------------------------------------------------------------------|
a--------------------------------------------------------------------|
e--------------------------------------------------------------------|

e----------------------------------------|
b---15^~~--15^~~-------------------------|
g-----------------14^~~--14^~~---14--12~-|
d----------------------------------------|
a----------------------------------------|
e----------------------------------------|

2nd verse: same as 1st verse

mama pakidagdag na lang ng sabaw
kapag gutom na talaga ako
mababayaran ko rin kayo
kapag mahanap ko ang wallet ko

repeat chorus

outro:(distortion)
e----------------------------------------------------------|
b---20~-----20-19---20-19--17-19p17-17~---20-17--20-17--15-|
g----------------------------------------------------------|
d----------------------------------------------------------|
a----------------------------------------------------------|
e----------------------------------------------------------|

e------------15------------------15-----------------------|
b--13-15-12~----15--12-10----------15---10s12--10s12------|
g--------------------------12s14----------------------12~-|
d---------------------------------------------------------|
a---------------------------------------------------------|
e---------------------------------------------------------|

e----------15----17s19--17-15-17-15--20-19-20-22~--20-19-20-22-20-19-20-|
b--------15---15--------------------------------------------------------|
g--14s16----------------------------------------------------------------|
d-----------------------------------------------------------------------|
a-----------------------------------------------------------------------|
e-----------------------------------------------------------------------|

e--22^^-22^^--20-19-20-19--------------------------|
b--------------------------22^^-22^--22-20-22-20~~-|
g--------------------------------------------------|
d--------------------------------------------------|
a--------------------------------------------------|
e--------------------------------------------------|

e--------------------------------------------------------------|
b--20~~--20-19~--20-19--17-19p17-17~--20-17--20-17--13--15-12~-|
g--------------------------------------------------------------|
d--------------------------------------------------------------|
a--------------------------------------------------------------|
e--------------------------------------------------------------|

e---------------------------------------------|
b---------------------------------------------|
g--12^~~--12-11^~~--11-9^~~---7~--5s4--0~~~~~-|
d---------------------------------------------|
a---------------------------------------------|
e---------------------------------------------|
tapos repeat ninyo na lang yung chorus

that's all.


Текст, аккорды и табулатура для песни "Nakaw Ang Wallet Ko", исполняет "Parokya Ni Edgar".
Используемые в песне аккорды можно найти в разделе Как брать аккорды. Аккорды для шестиструнной гитары. Другие песни можно найти на нашем сайте, воспользовавшись алфавитным указателем вверху страницы.


 
Ошибка в тексте? Выделите ошибку и нажмите Ctrl+Enter