Em        H7     G
Lonelyness is my only guest
Dm         E           Am   Am/G
Who visits me alone at night
F
When it comes I light two candles
Em
Just the way it was
F#                                Am H7
And pretend the flames become your eyes


Emptyness is a friend I guess
The shadow played upon the wall
If I let the candles take me
I can see your face
And remember hearing someone call your name


Em             D      Cadd9   Dsus4
My candles are crying O-o-o-o-h
Em             D      Cadd9   Dsus4
My candles are crying O-o-o-o-h
                   Em C Am Hm7  (табулатура этой и следующей строчки - ниже)
They're crying for you
                   Em C Am Hm7          
They're waiting for you
                   {Проигрыш}
I'm waiting for you


Is it you knocking at my door
Or maybe just a ghostly wind
How I wish that you were here
Sitting by my side
And you'll bring me back to life again tonight

My candles are crying O-o-o-o-h     |
My candles are crying O-o-o-o-h     |
They're crying for you              |  repeat twice
They're waiting for you             |
I'm waiting for you                 |

Последние строки припева играются так:


e-0-----3-----2---0-----3-----2---0-----3-----2---
B---0-----0-----0---1-----1-----1---1-----1-----1-
G-----0-----0---------0-----0---------2-----2-----
D-2-----------------------------------------------
A-----------------3---------------0---------------
E-------------------------------------------------

e-2-----5-------2-
B---3-----3---3---
G-----2-----2-----
D-----------------
A-2---------------
E-----------------

Проигрыш играется так (повторить два раза):

e-----------------------------------------------
B---------0-------------1-----------------------
G-------0---0---0-----0-------0-----------------
D-----4-------4-----2-------4---4---------------
A---2-------------3-------5---------------------
E-0---------------------------------------------


Текст, аккорды и табулатура для песни "Two Candles", исполняет "Парк Горького".
Используемые в песне аккорды можно найти в разделе Как брать аккорды. Аккорды для шестиструнной гитары. Другие песни можно найти на нашем сайте, воспользовавшись алфавитным указателем вверху страницы.


 
Ошибка в тексте? Выделите ошибку и нажмите Ctrl+Enter