(Intro)
              N.H.
e|-0---0-2---0---|
B|---0-----0-----|
G----|
D-(7)|
A----|
E----|

e|---------0---------|
B|---3---5-----5-----|
G|-----4-----4---5p4-|
D--------|
A--------|
E|-0-----------------|

e|-0-----2-0-----3-7-|
B|-----0-----------5-|
G|---0---------0---5-|
D|-2---------2-----7-|
A|---------3-------7-|
E------5-|

e|------7------------|
B|----10--10-8-----5-|
G|---9---------7-7---|
D|--9----------------|
A--------|
E|-0-----------------|

e|-0-----------0-----------0-----------0-----------0-----|
B|---3-------3---3-------3---3-------3---3-------3---3---|
G|-----5---5-------5---5-------5---5-------5---5-------5-|
D|-------5-----------5-----------5-----------5-----------|
A--------------------------------------------|
E--------------------------------------------|

e|-------0-----------0-----------0-----------2-----|
B|-----3---3-------3---3-------0---0-------0---0---|
G|---5-------5---5-------5---0-------0---0-------0-|
D|-4-----------4-----------2-----------0-----------|
A--------------------------------------|
E--------------------------------------|

e|-------3-----------5-----------7-|
B|-----0---0-------4---4-------6---|
G|---0-------0---5-------5---7-----|
D|-2-----------4-----------5-------|
A----------------------|
E----------------------|

e|---7-7-5-3-2-2h3p2-0-0-----0-|
B|-----0-------0-------0-4/7-0-|
G|-----0-------0-------2-----0-|
D|---5-5-------2-------------2-|
A|-7---7---------------2-----2-|
E----------------0-|


  Natural Harmonic
e|(12)-------------|
B|------(12)-(7)~~-|
G|---(12)----------|
D|---------(7)-----|
A------|
E------|


Текст, аккорды и табулатура для песни "Two Candles", исполняет "Парк Горького".
Используемые в песне аккорды можно найти в разделе Как брать аккорды. Аккорды для шестиструнной гитары. Другие песни можно найти на нашем сайте, воспользовавшись алфавитным указателем вверху страницы.


 
Ошибка в тексте? Выделите ошибку и нажмите Ctrl+Enter