tuning 1 whole step down		
ARTIST	PARADISE LOST	
SONG	WIDOW	
ALBMN	ICON

TRANSCRIBED BY Mark Graham
any corrections welcome to
[email protected]

Riff 1
|---------------------------------------------------------------------|
|---------------------------------------------------------------------|
|-----------------12--------------------------------------------------|GREG
|-12--14-14h15-14----14-14h15-14---12--14-14h15-14---12-14-14h15-14---|
|---------------------------------------------------------------------|
|---------------------------------------------------------------------|
RIFF 1
|-------------------------------------------------------------------|
|-------------------------------------------------------------------|
|-------------------------------------------------------------------|AARON
|-------------------------------------------------------------------|
|--8---7---6--5-----2---x4-then hold low G note-------5~~~~~~~------|
|--6---5---4--3-----0----------for feedback-----------3~~~~~~~~-----|

RIFF2
youre breaking a 
Born by a sickening
|--------------------------------------------------------------------|
|--------------------------------------------------------------------|
|--------------------------------------------------------------------|both
|-2--------5-------7------10-----------------------------------------|
|-2--------5-------5-------8-pick slides-----------------------------|
|-0--------3---------------------------------------------------------|

RIFF 3
Born with a look
Try dont see
|--------------------------------------------------------------------|
|--------------------------------------------------------------------|
|--------------------------------------------------------------------|BOTH
|-7-------5----2-----------------------------------------------------|
|-5---7---3----2-----------------------------------------------------|
|-----5--------0-----------------------------------------------------|

RIFF 4
BORN!!!!!!!!
|--------------------------------------------------------------------|
|----play riff 3 with this lead--------------------------------------|
|--------------------------------------------------------------------|
|--------------------------------------------------------5-5h7-------|GREG
|---/5~~-5-5--5p3-3--0--3--0--3--3/5-5--0-3p0-3h5-5-7--7-------------|
|--------------------------------------------------------------------|

RIFF 5
|-----------------------------------------------------------|
|-----------------------------------------------------------|
|----------7-7h9-7------------------------------------------|GREG
|--7--9-10---------10-9-------------------------------------|
|-----------------------------------------------------------|
|-----------------------------------------------------------|

RIFF 5
|-------------------------------------------------------------------|
|---strum-----------------------------------------------------------|
|-------------------------------------------------------------------|AARON
|----7--------10-----5------3---------------------------------------|
|----7--------10-----5------3----2----------------------------------|
|----5---------8-----3------1----0----------------------------------|

|--------------------------------------------------------------------|
|--------------------------------------------------------------------|
|--------------------------------------------------------------------|one guitar
|-2~~~~------9----------5-4--------7-7-7-----------------------------|AARON
|-0~~~~------7----------3-2--------5-5-5-----------------------------|
|--------------------------------------------------------------------|

solo
With Wah-Wah
|--------------------------------------------------------------------|
|-12--12---12--------------------------------------------------------|
|-14b-14b--14b-14-12-12~~~---10h12p1012h10p12h10p12------------------|Greg
|--------------------------------------------------------------------|
|--------------------------------------------------------------------|
|--------------------------------------------------------------------|

                                           b  b              
|--------------------------------------b--15-15--|--(15h12----12-)------|
|-----------------------b--b----------15---------|--------15------------|
|----------7-9--/12-9--12-14-14-12-12------------|----------------------|GREG
|------7-9---------------------------------------|----reapeat very fast-|
|-7-10-------------------------------------------|----------------------|
|------------------------------------------------|----------------------|

         b
|-15-17-17--17p15-----15-17p15---------------------------------------|
|-----------------17-----------17---15p13----13--15-13---------------|
|-----------------------------------------14-----------14------------|GREG
|--------------------------------------------------------------------|
|--------------------------------------------------------------------|
|--------------------------------------------------------------------|

|(-5p3h0-)----------b------------------------------------------------|
|------------------10--8h5-8p5---------------b-8-b-------------------|
|(reapeat fast)----------------7--7/9----5-7-7---7-7p5---5-5h7-5-----|GREG
|--------------------------------------7---------------7-------------|
|--------------------------------------------------------------------|
|--------------------------------------------------------------------|

|--------------------------------------------------------------------|
|---13---------------------------------------------------------------|
|14----14-12------12-------------7-8-7h8p7------7--------------------|GREG
|------------12h14----14-12--10-------------10-----7~~~~-------------|
|--------------------------------------------------------------------|
|--------------------------------------------------------------------|

|-----------------------------------------------------------------------|
|-----------------------------------------------------------------------|
|---------------------------2-------------------------------------------|
|---------2-----------------2----------7-------------------------------|AARON
|-3-3-3---2----x2 --3-3-3---0----------7-------------------------------|
|-1-1-1---0---------1-1-1--------------5-------------------------------|

|--------------------------------------------------------------------|
|--------------------------------------------------------------------|
|--------------------------------------------------------------------|
|-14--14-12-14-12-10-12-10-9-10-9h10p9-7-9-7-5-7-5-4-5-4--2-2--------|GREG
|---------------------------------------------------------------7---|
|---------------------------------------------------------------5---|


Текст, аккорды и табулатура для песни "Widow", исполняет "Paradise Lost".
Используемые в песне аккорды можно найти в разделе Как брать аккорды. Аккорды для шестиструнной гитары. Другие песни можно найти на нашем сайте, воспользовавшись алфавитным указателем вверху страницы.


 
Ошибка в тексте? Выделите ошибку и нажмите Ctrl+Enter