Rhy.Fig.1
   A                 D                 F
---------------|
---------------|
---------------|
|------|-9-9-9-9-9-9-9-9-|-12-12-12-12-12-12-12-12-|
||-9-9-9-9-9-9-9-9-|-7-7-7-7-7-7-7-7-|-10-10-10-10-10-10-10-10-|
||-7-7-7-7-7-7-7-7---------------------|
   G
 ------||
 ------||
 ------||
 ------||
 |-7-7-7-7-7-7-7-7-||
 |-5-5-5-5-5-5-5-5-||

Rhy.Fig.2
   E
-||
-||
-||  Palm mute gets looser 
||-4-4-4-4-4-4-4-4-|-4-4-4-4-4-4-4-4-||  from begining to end.
||-4-4-4-4-4-4-4-4-|-4-4-4-4-4-4-4-4-||
||-2-2-2-2-2-2-2-2-|-2-2-2-2-2-2-2-2-||
  PM.-------------------------------|

Riff 1

-||
-||
-||
-||
||-9-9-9-9-9-9-9-9-|-9-9-9-999999999-||
-||

Rhy.Fig.3
   A                                      F
----------------|
----------------|
----------------|
||-9---9---9---9-9-|---9-9---9/11-11/12-|-5---5---5---5-5-|---5-5---54-42-|
||-9---9---9---9-9-|---9-9---9/11-11/12-|-5---5---5---5-5-|---5-5---54-42-|
||-7---7---7---7-7-|---7-7---7/9---9/10-|-3---3---3---3-3-|---3-3---32-2


Текст, аккорды и табулатура для песни "The Last Time", исполняет "Paradise Lost".
Используемые в песне аккорды можно найти в разделе Как брать аккорды. Аккорды для шестиструнной гитары. Другие песни можно найти на нашем сайте, воспользовавшись алфавитным указателем вверху страницы.


 
Ошибка в тексте? Выделите ошибку и нажмите Ctrl+Enter