Tune down to one whole step:

E
B
G
D
A
D

Intro:

Played by piano

Arranged for guitar.

Guitar 1:

----------------------------------------------------------------------------------------
10------------------------------10------------------------------------------------------
|------7----------7----9----10--------7----------7----9----10---------------------------------------
-----------------------------------------------------------8----------------------------
----------------------------------------------------------------------------------------
----------------------------------------------------------------------------------------

Guitar 2:

------------------------------|
| ----------------------------------------|
------------------------------|
---------7--------------------|
---------5--------------------|
------------------------------|

Chorus:

Guitar 1:

----------------------------------------------------------------------------------------
10------------------------------10------------------------------------------------------
|------7----------7----9----10--------7----------7----9----10---------------------------------------
-----------------------------------------------------------8----------------------------
----------------------------------------------------------------------------------------
----------------------------------------------------------------------------------------

Guitar 2:

----------------------------------------------------------------------------------------
----------------------------------------------------------------------------------------
----------------------------------------------------------------------------------------
|------7-7-7-7-7-7-7---10-10-10-10-10-10-10-----5-5-5-5-5-5-5----3-3-3-3-3-3-3----------------------
|------5-5-5-5-5-5-5----8--8---8--8---8--8---8------3-3-3-3-3-3-3----1-1-1-1-1-1-1------------------
----------------------------------------------------------------------------------------

Not sure about the end!

----------------------------------------------------------------------------------------
----------------------------------------------------------------------------------------
----------------------------------------------------------------------------------------
|------7-7-7-7-7-7-7---10-10-10-10-10-10-10----5-5-5-5-5-5-5---2--3--3--3--3------------------------
|------5-5-5-5-5-5-5----8--8---8--8---8--8---8-----3-3-3-3-3-3-3---0--1--1--1--1---5---8------------
-------------------------------------------------------------------------------3---6---

Verse:

------------------------------------------------------------------------------
------------------------------------------------------------------------------
------------------------------------------------------------------------------
|-----7-7-7-7-7----7--7----7-7-7-7-7----7--7----7-7-7-7-7-7---7-7-7----10---12----15------
|-----5-5-5-5-5----5--5----5-5-5-5-5----5--5----5-5-5-5-5-5---5-5-5----8----10----13------
------------------------------------------------------------------------------

End of verse:

------------------------------------------------------------------------------
------------------------------------------------------------------------------
------------------------------------------------------------------------------
|-----2-2-2-2-2----2--2----2-2-2-2-2----2--2----2-2-2-2-2-2---2-2-2-2-2-------------------
|-----0-0-0-0-0----0--0----0-0-0-0-0----0--0----0-0-0-0-0-0---0-0-0-0-0-------------------
------------------------------------------------------------------------------

Bridge:

----------------------------------------------------------|
----------------------------------------------------------|
----------------------------------------------------------|
|------2-------6-------2-------6--6--6--6--6--6-----------------------|
|------0-------4-------0-------4--4--4--4--4--4-----------------------|
----------------------------------------------------------|

                                  The End
Наздаровье...


Текст, аккорды и табулатура для песни "Say Just Words", исполняет "Paradise Lost".
Используемые в песне аккорды можно найти в разделе Как брать аккорды. Аккорды для шестиструнной гитары. Другие песни можно найти на нашем сайте, воспользовавшись алфавитным указателем вверху страницы.


 
Ошибка в тексте? Выделите ошибку и нажмите Ctrl+Enter