tuning 	1 whole step down	
ARTIST	Paradise Lost	
SONG	Remembrance	
ALBMN	ICON

TRANSCRIBED BY Mark Graham 
DATE    19/09/97         
TIME    5.52pm GMT       
any corrections welcome to [email protected]
or for a crack (Talk) about anything


Riff 1
Chorus
|----------------------------------------------------------------------|
|----------------------------------------------------------------------|
|----------4--4-4-4-------------7--7-7-7---7-7-7---7-7-7---------------|Aaron
|----------4--4-4-4---2--2-2-2--7--7-7-7---7-7-7---7-7-7---2---2-2-2---|
|-5-4------2--2-2-2---2--2-2-2--5--5-5-5---5-5-5---5-5-5---0---0-0-0---|
|-----7-5-------------0--0-0-0-----------------------------------------|


Riff 1
|----------------------------------------------------|
|----------------------------------------------------|
|------------11-9----p--h---------------p------------|Gregor
|--9---9-9---------12-11-12--14---9--12-11-----------|
|-------------------------------------------9--7-7---|
|----------------------------------------------------|


Riff 2 
|----------------------------------------------------|
|----------------------------------------------------|
|------2-2-------------------------------------------|
|------2-2--------9-9-9-9-9-9-9----------------------|
|-0-0-------b-----7-7-7-7-7-7-7--use trem bar to dip each note-|
|-----------3----------------------------------------|


Riff 3
Lead (acoustic part):
|-----------------------------------------|
|-----------------------------------------|
|------4-------4-------4-------4-------4--|gregor
|----5-------5-------5-------5-------5----|
|--7-------7-------7-------7-------7------|
|-----------------------------------------|

Riff 4
|-------------------------------------|
|-------------------------------------|
|----------------------4--------------|Aaron
|--2-------5-------5---4----5----2----|
|--2-------5-------3---2----5----2----|
|--0-------3-------3--------3----0----|

Riff 4
|------3-------3-------3-------3------3--|
|----5-------5-------5-------5------5----|
|--4-------4-------4-------4------4------|
|----------------------------------------|Gregor
|----------------------------------------|
|----------------------------------------|

Riff 5
|-----------------------------------------------------------|
|---listen for strum----------------------------------------|
|-----------------------------------------------------------|Aaron
|--7-------5---------2-----2nd time played different--------|
|--7-------5---------2---x2---------------------------------|
|--5-------3---------0--------------------------------------|

Riff 5
|---------------------------------------------------------------------------|
|--------------------------------------------------------------------------|
|-------------------------------------9-----------same as chord strum------|Gregor
|-9-9-9-9-9-9-9-9-----------------------------------listen to record-------|
|------------------7-7-7-7-7-7-7-7---------------------16 times in all-----|
|--------------------------------------------------------------------------|

Riff 6
|-----------------------|------------------------------|
|-----------------------|------------------------------|
|-----------------------|----------------14------------|Gregor
|-----------7--------x2-|--16---16p14h16-----16p14h16--|
|--9--9p7h9---9p7-9-----|------------------------------|
|-----------------------|------------------------------|

|-----------------------------|
|-----------------------------|
|-----------------------------|Aaron
|--4----5----2------2-2--2-2--|
|--4----5----2------2-2--2-2--|
|--2----3----0------0-0--0-0--|

SOLO - by Gregor McKintosh - Use Wah-Wah and Delay.


|----------------------------------------------------------------------------|
|--b15--b15-b15--b15--b15--b15-----------------------------------------------|
|-14---14--14---14---14---14---14-12-14-12--12----------------------12-14-12-|
|-----------------------------------------14---14-12-14-12----12-14----------|
|----------------------------------------------------------14----------------|
|----------------------------------------------------------------------------|
                  
                                         b   b
|-------------------------b--b----------17--17--15h17-15-12-----------------|
|-15--15---b-------------15-15-12-15-12--------------------------------------|
|-14b-14b-14-14-12----12-----------------------------------------------------|
|------------------14--------------------------------------------------------|
|----------------------------------------------------------------------------|
|----------------------------------------------------------------------------|

|-15-12----12----------------------------------------------------------------|
|-------15----15-12-15-12----------------------------------------------------|
|-------------------------14-12-14-12---------14-----------------------------|
|-----------------------------------------/14----14-14p12-12h14--------------|
|----------------------------------------------------------------------------|
|----------------------------------------------------------------------------|

|---------------------------------------------------------------------|
|---------------------------------------------------------------------|
|-14------------------------------------------------------------------|
|----14-12-14-12-10-12-10-9-9h10p9----9-------------------------------|
|----------------------------------12---12-10-12-10-9-10-9-7--5-5/7---|
|---------------------------------------------------------------------|

          T   
|---12h15-17----------------|
|---------------------------|
|-------------reapeat-------|
|---------------------------|
|---------------------------|
|---------------------------|

   T  T         
|-17-17-15p12--------------|
|-------------15-----------|
|--------------------------|
|--------------------------|
|--------------------------|
|--------------------------|


|--------------------------b----------------------------------|
|-------------12----12-15-15-15p12----------------------------|
|-12----12-14----14----------------14-12----12h14-12----------|
|----14----------------------------------14----------14-------|
|-------------------------------------------------------------|
|-------------------------------------------------------------|

ENDING
|---------------------------------------------------------------|
|---------------------------------------------------------------|
|---4~~~~~~-----------------------------------------------------|
|---4~~~~~~-----------------------------------------------------|
|---2~~~~~~-----------------------------------------------------|
|---------------------------------------------------------------|


Текст, аккорды и табулатура для песни "Remembrance", исполняет "Paradise Lost".
Используемые в песне аккорды можно найти в разделе Как брать аккорды. Аккорды для шестиструнной гитары. Другие песни можно найти на нашем сайте, воспользовавшись алфавитным указателем вверху страницы.


 
Ошибка в тексте? Выделите ошибку и нажмите Ctrl+Enter