> тюнинг, значится, такой:(1:D 2:A 3:F 4:C 5:G 6:D)


riff 1 guitar 1
you must feel
--------------------------------------------------------------------------------|
--------------------------------------------------------------------------------|
|-11h12-12---12--11-11h12-12--12p11-11--114~~---4--11h12-12-12-1211-11--12----4---8--11---|
--------------------------------------------------------------------------------|
--------------------------------------------------------------------------------|
--------------------------------------------------------------------------------|

riff 1 guitar 2
you must feel
--------------------------------------------|
--------------------------------------------|
--------------------------------------------|
|--------4---------------------4------------------------|
|-2--5---2--5-4-------2--5--4--2------------------------|
|-0--3------3-2-------0--3--2---------------------------|

riff 2
are you forever
----------------------------------------------|
----------------------------------------------|
|-9--12-------8-------------------------------------------|
|---------9--------9--x2----------------------------------|
|-7--10-------6-------------------------------------------|
|---------7--------7--------------------------------------|


Guitar 1
----------------------------------------------|
----------------------------------------------|
|------7-----0--------------------------------------------|
|---------7-----2-----------------------------------------|
----------------------------------------------|
----------------------------------------------|


Riff 3  Guitar 1
----------------------------------------------------|
-------------------------7-8--10~~~-----------------|
|-9--7-----------------------9-7-8-9----------------------------|
|-------9--7--9-------------------------------------------------|
-----7--2---9---------------------------------------|
----------------------------------------------------|

Riff 3  Guitar 2
---------------------------------------------------------------|
--------------0--------1--------0--------------------------0---|
|-------0--------0------4--------2--------9----------0--------0------4-----|
---5------4--------2--------9----------5--------4------4-------|
|---2--------5------2--------0--------7----------5--------4------2---------|
|-0--------3-----------------------------------3--------2------------------|


Riff 4  Guitar 1
--------------------------------------------------------
--------------------------------------------------------
-9-9-9-9-9-9-9-9--9-9-9-9-9-9-9-9--9-9-9-9-9-9-9-9------
--------------------------------------------------------
--------------------------------------------------------
--------------------------------------------------------

Riff 4  Guitar 2
--------------------------------------------------------
--------------------------------------------------------
--------------------------------------------------------
-----------------------------------5------4---------------
-7------5---------4------2---------3------2-------------
-5------3---------2------0---------3-------------------


Gregor
|-------12-----------------------------------------------|
|----13-----15-13-12-------------------------------------|
|-14-sweep-----------14-12-------------------------------|
---------------------------------------------|
---------------------------------------------|
---------------------------------------------|

Guitar 1
---------------------------------------------|
-10-12-----------------12-10-----------------|
|-11-9-11-12-------11-9-11-12-11-9-------12-11-9---------|
-------------------------------------12------|
---------------------------------------------|
---------------------------------------------|

Guitar 1
-----------------------------------------------|
------------------------0----------------------|
|-----9------------0--------0-----4------------------------|
|---9---9--------5--------2-----4--------------------------|
|-7------------5--------4-----2----------------------------|
-3--------4------------------------------------|

SOLO:

Guitar 1
-----------------------------------------------|
|-/10-------------10-12------------------------------------|
|------11~~---11---------9-9--7--7--9-9-----7-9-9-9-7h9~9--|
------------------------------9----------------|
-----------------------------------------------|
-----------------------------------------------|

-----------------------------------------------|
----------12-10--------------------------------|
|----7-9-9-9-7h9--9---------11-9h10p9-7h9p7--4-------------|
|--9-------------------------------------------------------|
-----------------------------------------------|
-----------------------------------------------|

--------------------------------------------|
|-----10-12-12----10------------------10-10-12-12-------|
|--11----------------11----------11-11------------------|
-----------9--------------------------------|
--------------12-9--------------------------|
--------------------------------------------|

|------10-10----------------------------------------|
|-10-10------10-10-10--12---10----------------------|
--------------------9-9h10p9---7--------|
----------------------------------------|
----------------------------------------|
----------------------------------------|

-------10-12-/15-12-----b--b--b--15-17-------------|
-10-12--------------15-15-15-15--------15-17-------|
|-------9-12---------------------------------------------------|
|-9-12---------------------------------------------------------|
---------------------------------------------------|
---------------------------------------------------|

--------------------------------------------------------|
|--15-12-15-12----12------------------------------------------------|
---14----14-12-14-12----12------------------------------|
---------------------14----14-12-14--12----12-12-12/14--|
----------------------------------------14--------------|
--------------------------------------------------------|


Текст, аккорды и табулатура для песни "Forever Failure", исполняет "Paradise Lost".
Используемые в песне аккорды можно найти в разделе Как брать аккорды. Аккорды для шестиструнной гитары. Другие песни можно найти на нашем сайте, воспользовавшись алфавитным указателем вверху страницы.


 
Ошибка в тексте? Выделите ошибку и нажмите Ctrl+Enter