tuning 	Down 1 Whole Step	
ARTIST	Paradise Lost	
SONG	Christendom	
ALBMN	Icon

TRANSCRIBED BY Mark Graham 
DATE 21/10/97             
TIME 9.51pm
          
any corrections Comments or for a Chat your welcome to [email protected]

Riff 1
intro
Innocence beneath this
|------5------5-----4------4------3---------------------------------|
|----7------7-----7------6------5--------4--------------------------|
|--6------6-----6------5------4--------5---------2------------------|
|------------------------------------5---------2--------------------|
|--------------------------------------------0----------------------|
|-------------------------------------------------------------------|

theres a rhythm bit that aaron plays but im not sure yet
sounds a bit like this
Riff 2
|----------------------------------------------------------------|
|----------------------------------------------------------------|
|---------11-11--9-9--8-8----------------------------------------|Aaron
|--11-11---9--9--7-7--6-6----------------------------------------|
|---9--9-------------------Damped--------------------------------|
|----------------------------------------------------------------|

Riff 2
|------------------------------------------------------------------|
|------------------------------------------------------------------|
|----6~~---4~~---6~~----6~~---4~~---6~~--7~-------------11~~-------|Gregor
|--------------------------------------------7h9-6-----------------|
|------------------------------------------------------------------|
|------------------------------------------------------------------|

Riff 2
|--------------------------------------------------------------16----|
|----------------------------------------------------14-16p14--------|
|--11~--9~~-11~~--11~--9~--11~-12~~----14h16--13~~-------------------|Gregor
|--------------------------------------------------------------------|
|--------------------------------------------------------------------|
|--------------------------------------------------------------------|

Riff 3
|--------------------------------------------------------------------|
|--------------------------------------------------------------------|
|--------------------------------------------------------------------|Aaron
|------------------2-------2-2--2-2----------------------------------|
|---4-----3----2---0-------0-0--0-0----------------------------------|
|---2-----1----0-----------------------------------------------------|

Riff 3 cont'd
|--14-14------------------------------------------------------------|
|--------15-15-14-14------------------------------------------------|
|--------------------16-16-14-14-------13-13-14-14------------------|Gregor
|--------------------------------16-16------------------------------|
|-------------------------------------------------------------------|
|-------------------------------------------------------------------|

Riff 3 cont'd
|--------------------------------------------------------------------|
|--------------------------------------------------------------------|
|-14-14--------------------------------------------------------------|Gregor
|-------15-15-14-14-12-12-10-10-7-7-9-9-10-10------------------------|
|--------------------------------------------------------------------|
|--------------------------------------------------------------------|
Riff 3 cont'd
|--------------------------------------------------------------------|
|--------15-15-14-14-------------------------------------------------|
|--11-11-------------16-16-14-14-------13-13-14-14-------------------|Gregor
|--------------------------------16-16-------------------------------|
|--------------------------------------------------------------------|
|--------------------------------------------------------------------|

|--------------------------------------------------------------------|
|--------------------------------------------------------------------|
|-14-14--------------------------------------------------------------|Gregor
|-------15-15-14-14-12-12-10-10-7-7-9-9-10-10------------------------|
|--------------------------------------------------------------------|
|--------------------------------------------------------------------|

Riff 4
They Betray
|-----------------------------------------------------------------------|
|-----------------------------------------------------------------------|
|-----------------------------------------------------------------------|Gregor
|---2-2---4--5---4--2---4--5--------------------------------------------|
|---0-0---2--3---2--0---2--3--------------------------------------------|
|-----------------------------------------------------------------------|

Riff 5
use delay Here with riff  4 aaron chords
|-------------------------------------------------------------------|
|-------------------------------------------------------------------|
|--14----16----17----19----17----16----14----14---------------------|Gregor
|-----14----14----14----14----14----14----14----14------------------| 3.48
|-------------------------------------------------------------------|
|-------------------------------------------------------------------|


Текст, аккорды и табулатура для песни "Christendom", исполняет "Paradise Lost".
Используемые в песне аккорды можно найти в разделе Как брать аккорды. Аккорды для шестиструнной гитары. Другие песни можно найти на нашем сайте, воспользовавшись алфавитным указателем вверху страницы.


 
Ошибка в тексте? Выделите ошибку и нажмите Ctrl+Enter