#----------------------------------PLEASE NOTE----------------------------------#
# This file is the author's own work and represents their interpretation of the #
# song. You may only use this file for private study, scholarship, or research. #
#-------------------------------------------------------------------------------#


Song: Papa Roach - lovehatetragedy - Walking Through Barbed Wire
Tabbed By: Justin Corbitt | Cobra
Tuning: Dropped D
D# A# D# G# B# 

My first Papa Roach tab for the new album to be released.


X2 W/ Effect | X4 Regular

E#|--------------------------------------------------------|O
B#|--------------------------------------------------------|O
G#|--------------------------------------------------------|O
D#|-7-77-7-33-2-2------------------------------------------|O
A#|-7-77-7-33-2-2------------------------------------------|O
D#|-7-77-7-33-2-2------------------------------------------|O
pm         .

X3

E#|--------------------------------------------------------|O
B#|--------------------------------------------------------|O
G#|--------99-10-------------------------------------------|O
D#|-7-77-7-xx-x--------------------------------------------|O
A#|-7-77-7-77-8--------------------------------------------|O
D#|-7-77-7-------------------------------------------------|O

X1

E#|--------------------------------------------------------|O
B#|--------------------------------------------------------|O
G#|--------10-10-7-----------------------------------------|O
D#|-7-77-7-x--x--x-----------------------------------------|O
A#|-7-77-7-9--9--5-----------------------------------------|O
D#|-7-77-7-------------------------------------------------|O

X2

E#|--------------------------------------------------------|O
B#|--------------------------------------------------------|O
G#|--------------------------------------------------------|O
D#|-3-33----3-33----3-32-2-33----2302-33----3-22-3-3-------|O
A#|-3-33----3-33----3-32-2-33----2302-33----3-22-3-3-------|O
D#|-3-33----3-33----3-32-2-33----2302-33----3-22-3-3-------|O
pm          .         .  .       ....

X1

E#|--------------------------------------------------------|O
B#|--------------------------------------------------------|O
G#|--------------------------------------------------------|O
D#|-3-33----3-33----3-32-2-33----2302-33----3-22-----------|O
A#|-3-33----3-33----3-32-2-33----2302-33----3-22-----------|O
D#|-3-33----3-33----3-32-2-33----2302-33----3-22-----------|O
pm          .         .  .       ....

X1

E#|--------------------------------------------------------|O
B#|--------------------------------------------------------|O
G#|--------------------------------------------------------|O
D#|-3-33----3-33----3-33----3-33--3-2----------------------|O
A#|-3-33----3-33----3-33----3-33--3-2----------------------|O
D#|-3-33----3-33----3-33----3-33--3-2----------------------|O

X1

E#|--------------------------------------------------------|O
B#|--------------------------------------------------------|O
G#|--------------------------------------------------------|O
D#|-3-33----3-33----3-33----3-33--5-55---------------------|O
A#|-3-33----3-33----3-33----3-33--5-55---------------------|O
D#|-3-33----3-33----3-33----3-33--5-55---------------------|O

x4

E#|--------------------------------------------------------|O
B#|--------------------------------------------------------|O
G#|--------------------------------------------------------|O
D#|-7-77-7-33-2-2------------------------------------------|O
A#|-7-77-7-33-2-2------------------------------------------|O
D#|-7-77-7-33-2-2------------------------------------------|O
pm         .

X2

E#|--------------------------------------------------------|O
B#|--------------------------------------------------------|O
G#|--------------------------------------------------------|O
D#|-3-33----3-33----3-32-2-33----2302-33----3-22-3-3-------|O
A#|-3-33----3-33----3-32-2-33----2302-33----3-22-3-3-------|O
D#|-3-33----3-33----3-32-2-33----2302-33----3-22-3-3-------|O
pm          .         .  .       ....

X1

E#|--------------------------------------------------------|O
B#|--------------------------------------------------------|O
G#|--------------------------------------------------------|O
D#|-3-33----3-33----3-32-2-33----2302-33----3-22-----------|O
A#|-3-33----3-33----3-32-2-33----2302-33----3-22-----------|O
D#|-3-33----3-33----3-32-2-33----2302-33----3-22-----------|O
pm          .         .  .       ....

X1

E#|--------------------------------------------------------|O
B#|--------------------------------------------------------|O
G#|--------------------------------------------------------|O
D#|-3-33----3-33----3-33----3-33--3-2----------------------|O
A#|-3-33----3-33----3-33----3-33--3-2----------------------|O
D#|-3-33----3-33----3-33----3-33--3-2----------------------|O

X1

E#|--------------------------------------------------------|O
B#|--------------------------------------------------------|O
G#|--------------------------------------------------------|O
D#|-3-33----3-33----3-33----3-33--5-55---------------------|O
A#|-3-33----3-33----3-33----3-33--5-55---------------------|O
D#|-3-33----3-33----3-33----3-33--5-55---------------------|O

X8

E#|--------------------------------------------------------|O
B#|--------------------------------------------------------|O
G#|--------------------------------------------------------|O
D#|-7-77-7-33-2-2------------------------------------------|O
A#|-7-77-7-33-2-2------------------------------------------|O
D#|-7-77-7-33-2-2------------------------------------------|O
pm         .

X1

E#|--------------------------------------------------------|O
B#|--------------------------------------------------------|O
G#|--------------------------------------------------------|O
D#|-3-33----3-33----3-33----3-33---------------------------|O
A#|-3-33----3-33----3-33----3-33---------------------------|O
D#|-3-33----3-33----3-33----3-33---------------------------|O

X3

E#|--------------------------------------------------------|O
B#|--------------------------------------------------------|O
G#|--------99-10-------------------------------------------|O
D#|-7-77-7-xx-x--------------------------------------------|O
A#|-7-77-7-77-8--------------------------------------------|O
D#|-7-77-7-------------------------------------------------|O

X1

E#|--------------------------------------------------------|O
B#|--------------------------------------------------------|O
G#|--------10-9-7------------------------------------------|O
D#|-7-77-7-x--x-x------------------------------------------|O
A#|-7-77-7-9--7-5------------------------------------------|O
D#|-7-77-7-------------------------------------------------|O

X1

E#|--------------------------------------------------------|O
B#|--------------------------------------------------------|O
G#|--------13-13-14-----------13-14-12---------------------|O
D#|-8-88-8-x--x--x-----8-88-8-x--x--x----------------------|O
A#|-8-88-8-11-11-12----8-88-8-11-12-10---------------------|O
D#|-8-88-8-------------8-88-8------------------------------|O

X1

E#|--------------------------------------------------------|O
B#|--------------------------------------------------------|O
G#|--------13-13-14-----------10-12-9----------------------|O
D#|-8-88-8-x--x--x-----8-88-8-x--x--x----------------------|O
A#|-8-88-8-11-11-12----8-88-8-9--10-7----------------------|O
D#|-8-88-8-------------8-88-8------------------------------|O

X3

E#|--------------------------------------------------------|O
B#|--------------------------------------------------------|O
G#|--------99-10-------------------------------------------|O
D#|-7-77-7-xx-x--------------------------------------------|O
A#|-7-77-7-77-8--------------------------------------------|O
D#|-7-77-7-------------------------------------------------|O

X1

E#|--------------------------------------------------------|O
B#|--------------------------------------------------------|O
G#|--------9-10-7------------------------------------------|O
D#|-7-77-7-7-9--5------------------------------------------|O
A#|-7-77-7-7-9--5------------------------------------------|O
D#|-7-77-7-------------------------------------------------|O

X1

E#|--------------------------------------------------------|O
B#|--------------------------------------------------------|O
G#|--------13-13-14-----------13-14-12---------------------|O
D#|-8-88-8-x--x--x-----8-88-8-x--x--x----------------------|O
A#|-8-88-8-11-11-12----8-88-8-11-12-10---------------------|O
D#|-8-88-8-------------8-88-8------------------------------|O

X1

E#|--------------------------------------------------------|O
B#|--------------------------------------------------------|O
G#|--------13-13-14-----------12-14-10---------------------|O
D#|-8-88-8-x--x--x-----8-88-8-x--x--x----------------------|O
A#|-8-88-8-11-11-12----8-88-8-10-12-9----------------------|O
D#|-8-88-8-------------8-88-8------------------------------|O

X3

E#|--------------------------------------------------------|O
B#|--------------------------------------------------------|O
G#|--------99-10-------------------------------------------|O
D#|-7-77-7-xx-x--------------------------------------------|O
A#|-7-77-7-77-8--------------------------------------------|O
D#|-7-77-7-------------------------------------------------|O

X1

E#|--------------------------------------------------------|O
B#|--------------------------------------------------------|O
G#|--------10-9-7------------------------------------------|O
D#|-7-77-7-x--x-x------------------------------------------|O
A#|-7-77-7-8--7-5------------------------------------------|O
D#|-7-77-7-------------------------------------------------|O

X1

E#|--------------------------------------------------------|O
B#|--------------------------------------------------------|O
G#|--------------------------------------------------------|O
D#|-3-33----3-33----3-33----3-33--3-2~---------------------|O
A#|-3-33----3-33----3-33----3-33--3-2~---------------------|O
D#|-3-33----3-33----3-33----3-33--3-2~---------------------|O


Текст, аккорды и табулатура для песни "Walking Through Barbed Wire", исполняет "Papa Roach".
Используемые в песне аккорды можно найти в разделе Как брать аккорды. Аккорды для шестиструнной гитары. Другие песни можно найти на нашем сайте, воспользовавшись алфавитным указателем вверху страницы.


Слушать онлайн Walking Thru Barbed Wire


Papa RoachWalking Thru Barbed Wire на Яндекс.Музыке


 
Ошибка в тексте? Выделите ошибку и нажмите Ctrl+Enter