Papa Roach
Time and time again
Tabbed by A.C.L.([email protected])

Tuning C G C F A D 

Intro
D)-----------------------------------------|
A)-----------------------------------------|
F)-----------------------------------------|
C)--4-4-4--6-6-6--7-7-7--9-9-9--11--14-----|
G)--4-4-4--6-6-6--7-7-7--9-9-9--11--14-----|
C)--4-4-4--6-6-6--7-7-7--9-9-9--11--14-----| x3

D)---------------------------------------------------------|
A)---------------------------------------------------------|
F)---------------------------------------------------------|
C)---------------------------------------------------------|
G)---------------------------------------------------------|
C)—--14-14—11--14—14-11--14-14-11—-14-14-11—-14-14-11—11---|

Verse
D)-----------------------------------------|
A)-----------------------------------------|
F)-----------------------------------------|
C)-----------------------------------------|
G)-----------------------------------------|
C)—--7-7—4--7-7-4—-7-7-4--7-7-4--7-7-4--4--|

D)-----------------------------------------|
A)-----------------------------------------|
F)-----------------------------------------|
C)-----------------------------------------|
G)---4-4-7--4-4-7--4-4-7--4-4-7--4-4-7--4--|
C)-----------------------------------------|

D)-----------------------------------------|
A)-----------------------------------------|
F)-----------------------------------------|
C)-----------------------------------------|
G)-----------------------------------------|
C)—--7-7—4--7-7-4—-7-7-4--7-7-4--7-7-4--4--|

D)-----------------------------------------|
A)-----------------------------------------|
F)-----------------------------------------|
C)------------------------x-x-6---x-x-7----|
G)----4-4-7--4-4-7--4-4---x-x-6—--x-x-7----|
C)------------------------x-x-6---x-x-7----|


Chorus
D)--------------------------------------------------------|
A)--------------------------------------------------------|
F)--------------------------------------------------------|
C)-----8------11-----4-----6-----8-----11-----4-----2-----|
G)-----8------11-----4-----6-----8-----11-----4-----2-----|
C)—----8—---—-11-----4-----6-----8-----11-----4-----2-----|

Riff 3
D)----------------------------------------------------------|
A)----------------------------------------------------------|
F)---6-6-6-6--6-6-6-6--6-6-6-----9-9-9-9--9-9-9-9--9-9-9----|
C)---6-6-6-6--6-6-6-6--6-6-6-----9-9-9-9--9-9-9-9--9-9-9----|
G)---4-4-4-4--4-4-4-4--4-4-4-----7-7-7-7--7-7-7-7--7-7-7----|
C)—--4-4—4-4--4-4-4-4--4-4-4-----7-7-7-7--7-7-7-7--7-7-7----|

D)----------------------------------------------------------|
A)----------------------------------------------------------|
F)----------------------------------------------------------|
C)---0-0-0-0--0-0-0-0---0-0-0-----2-2-2-2--2-2-2-2--2-2-2---|
G)---0-0-0-0--0-0-0-0---0-0-0-----2-2-2-2--2-2-2-2--2-2-2---|
C)—--0—0-0-0—-0-0-0-0---0-0-0-----2-2-2-2--2-2-2-2--2-2-2---|


Текст, аккорды и табулатура для песни "Time And Time Again", исполняет "Papa Roach".
Используемые в песне аккорды можно найти в разделе Как брать аккорды. Аккорды для шестиструнной гитары. Другие песни можно найти на нашем сайте, воспользовавшись алфавитным указателем вверху страницы.


Слушать онлайн Time and Time Again


Papa RoachTime and Time Again на Яндекс.Музыке


 
Ошибка в тексте? Выделите ошибку и нажмите Ctrl+Enter