Artist : Papa Roach
Title  : Thrown Away
Album  : Infest

Tab by 112178    [email protected]

Tuning: Drop D (D,A,D,G)

It's basically the same pattern used over and over again, it's
just used in a different melody. Listen to the song while you're 
playing, it helps.

Riff 1:


|-------------------------------------------|
|-------------------------------------------|
|-------------------------------------------|
|-2-2--2--x-2-2-0--3-3--3--x-3-3--3--x-3-3-0|

Riff 2:


|---------------------------------------------------|
|---------------------------------------------------|
|---------------------------------------------------|
|-2--2--2--2-0--3--3--3--3-0-2--2--2--2-0-3--3--3--3|

Riff 3 (Chorus) x2:


|---------------------------------------------------------|
|---------------------------------------------------------|
|-2-2-2-2-22-2-3-3-3-3-3//5-5-5--2-2-2-2-22-2-------------|
|---------------------------------------------6-6-66-6-6-6|

Riff 4:


|--------------------------------------------------------|
|--------------------------------------------------------|
|--------------------------------------------------------|
|-22-22-22-22-0-33-33-33-33-0-22-22-22-22-0-33-33-33-33-0|

Riff 5 (Outro):

------------------------------------------------------------
------------------------------------------------------------
-8-8-88-8-8-88-8-8-8-4-4-44-4-4-44-4-4----------------------
----------------------------------------8-8--88-8-8-88-8-8-8

---------------------------------|
---------------------------------|
-6-6-6-6-6-6---------------------|
---------------------------------|


Текст, аккорды и табулатура для песни "Thrown Away", исполняет "Papa Roach".
Используемые в песне аккорды можно найти в разделе Как брать аккорды. Аккорды для шестиструнной гитары. Другие песни можно найти на нашем сайте, воспользовавшись алфавитным указателем вверху страницы.


 
Ошибка в тексте? Выделите ошибку и нажмите Ctrl+Enter