Jon-Michael Southworth 
[email protected] 

Papa Roach 
Thrown Away 

Dropped D Tuning: 

  Intro/Breakdown: 

  1|-------------------------------------------- 
  2|-------------------------------------------- 
  3|-------------------------------------------- 
  4|2-2-2-0-2-2-2-0-2-2-0-|3-3-3-0-3-3-3-0-3-3-0 
  5|2-2-2-0-2-2-2-0-2-2-0-|3-3-3-0-3-3-3-0-3-3-0 
  6|2-2-2-0-2-2-2-0-2-2-0-|3-3-3-0-3-3-3-0-3-3-0 

  Verse: (First played at 0:19) 

  1|-------------------------------------------- 
  2|-------------------------------------------- 
  3|-------------------------------------------- 
  4|222-222-222-22-0-333-333-333-33-0 
  5|222-222-222-22-0-333-333-333-33-0 
  6|222-222-222-22-0-333-333-333-33-0 

  Second guitar track played begind the main riff: 

  1|----7-8------------------------------------- 
  2|----5-6------------------------------------- 
  3|4-5----------------------------------------- 
  4|2-3----------------------------------------- 
  5|-------------------------------------------- 
  6|-------------------------------------------- 

  Chorus: 

  1|-------------------------------------------- 
  2|-------------------------------------------- 
  3|-------------------------------------------- 
  4|4-5-7-4-6----------------------------------- 
  5|2-3-5-2-6----------------------------------- 
  6|--------6----------------------------------- 

  Bridge: 

  1|---------------------------------------------------------- 
  2|---------------------------------------------------------- 
  3|---------------------------------------------------------- 
  4|22------22------22------22-0-33------33------33------33-0- 
  5|22------22------22------22-0-33------33------33------33-0- 
  6|22-h(2)-22-h(2)-22-h(2)-22-0-33-h(2)-33-h(2)-33-h(2)-33-0- 

  Outro: (He plays this over the bassline starting at 3:26, 
  listen to the track to get the pattern down.) 

  1|-------------------------------------------- 
  2|-------------------------------------------- 
  3|-5------------------------------------------ 
  4|-3--8--------------------------------------- 
  5|----6--------------------------------------- 
  6|-------------------------------------------- 

  Order In Which To Be Played: 

  Intro 
  Verse 
  Chorus 
  Bridge 
  Verse 
  Chorus 
  Bridge 
  Verse 
  Breakdown 
  Verse 
  Chorus 
  Outro 


Текст, аккорды и табулатура для песни "Thrown Away", исполняет "Papa Roach".
Используемые в песне аккорды можно найти в разделе Как брать аккорды. Аккорды для шестиструнной гитары. Другие песни можно найти на нашем сайте, воспользовавшись алфавитным указателем вверху страницы.


 
Ошибка в тексте? Выделите ошибку и нажмите Ctrl+Enter