Author/Artist: Papa Roach
Title: She Loves Me Not
Album: Lovehatetragedy

Tuning is DADGBE 

Verse

-----------------------------------------------------------
-----------------------------------------------------------
-----------------------------------------------------------
-x-7-7--x-3-3--x-0-0--x-2-2-xxx-2-2-xxx--------------------
-x-7-7--x-3-3--x-0-0--x-2-2-xxx-2-2-xxx--------------------
-x-7-7--x-3-3--x-0-0--x-2-2-xxx-2-2-xxx--------------------
                                                           

-----------------------------------------------------------
-----------------------------------------------------------
-----------------------------------------------------------
-x-7-7--x-3-3--x-0-0--x-2-2-xxx-----xxx--------------------
-x-7-7--x-3-3--x-0-0--x-2-2-xxx-3-3-xxx--------------------
-x-7-7--x-3-3--x-0-0--x-2-2-xxx-0-0-xxx--------------------


-----------------------------------------------------------
-----------------------------------------------------------
-----------------------------------------------------------
-x-7-7--x-3-3--x-0-0--x-2-2-xxx-2-2-xxx--------------------
-x-7-7--x-3-3--x-0-0--x-2-2-xxx-2-2-xxx--------------------
-x-7-7--x-3-3--x-0-0--x-2-2-xxx-2-2-xxx--------------------


Pre Chorus

-----------------------------------------------------------
-----------------------------------------------------------
-----------------------------------------------------------
-7-7---------------3-3---------------0-0-------------------
-7-7--8p7----------3-3--8p7----------0-0--8p7--------------
-7-7-----10-101010-3-3-----10-101010-0-0----10-101010------
 
-----------------------
-----------------------
-----------------------
-2-2-------------------
-2-2--8p7--------------
-2-2-----10-101010-----


Chorus

--------------------------------------------------------
--------------------------------------------------------
-5-5-5--5--5-7-7-7--7--7-9-9-9--9--9-9-9-9--9-----------
-3-3-3--3--3-5-5-5--5--5-7-7-7--7--7-7-7-7--7-----------
-3-3-3--3--3-5-5-5--5--5-7-7-7--7--7-7-7-7--7-----------
-3-3-3--3--3-5-5-5--5--5-7-7-7--7--7-7-7-7--7-----------
 

(Transitions from Chorus to verse)

-----------------------------------------------------------
-----------------------------------------------------------
-----------------------------------------------------------
--3-3--3-3-3-5-5--5-5-5-7-7--------------------------------
--3-3--3-3-3-5-5--5-5-5-7-7--------------------------------
--3-3--3-3-3-5-5--5-5-5-7-7--------------------------------
 
 
Breakdown
          
-----------------------------------------------------------
-----------------------------------------------------------
-12-12-12--12--12-7-7-7--7--7-9-9-9---9---9-9-9-9---9------
-10-10-10--10--10-5-5-5--5--5-7-7-7---9---7-7-7-7---9------
-10-10-10--10--10-5-5-5--5--5-7-7-7---7---7-7-7-7---7------
-10-10-10--10--10-5-5-5--5--5-7-7-7---7---7-7-7-7---7------
                                                


(LIFES NOT FAIR..LIFES NOT FAIR) 
-----------------------------------------------------------
-----------------------------------------------------------
-5-5-5-5-5-5-5-5-7-7-7-7-7-7-7-7-9-9-9-9-9-9-9-9-----------
-3-3-3-3-3-3-3-3-5-5-5-5-5-5-5-5-7-7-7-7-7-7-7-7-----------
-3-3-3-3-3-3-3-3-5-5-5-5-5-5-5-5-7-7-7-7-7-7-7-7-----------
-3-3-3-3-3-3-3-3-5-5-5-5-5-5-5-5-7-7-7-7-7-7-7-7-----------
    

Outro

------------------------------------------------------
------------------------------------------------------
-12-12-12--12--12-7-7-7--7--7-9-9-9---9-9-9-9---------
-10-10-10--10--10-5-5-5--5--5-7-7-7---7-7-7-7---------
-10-10-10--10--10-5-5-5--5--5-7-7-7---7-7-7-7---------
-10-10-10--10--10-5-5-5--5--5-7-7-7---7-7-7-7---------

-----------------------------------------------------------
-----------------------------------------------------------
-12-12-12--12--12-7-7-7--7--7------------------------------
-10-10-10--10--10-5-5-5--5--5-2-2-2-2-2-2-2-2-2-2-2-2-2-2-2
-10-10-10--10--10-5-5-5--5--5-2-2-2-2-2-2-2-2-2-2-2-2-2-2-2
-10-10-10--10--10-5-5-5--5--5-2-2-2-2-2-2-2-2-2-2-2-2-2-2-2
                             |---------Palm Mute-----------            

-----------------------------------------------------------
-----------------------------------------------------------
--------5-----------7-----9-9-9-9-9------------------------
-3-3-3--5--3-5-5-5--7--5--9-9-9-9-9------------------------
-3-3-3--3--3-5-5-5--5--5--7-7-7-7-7------------------------
-3-3-3--3--3-5-5-5--5--5--7-7-7-7-7------------------------


Текст, аккорды и табулатура для песни "She Loves Me Not", исполняет "Papa Roach".
Используемые в песне аккорды можно найти в разделе Как брать аккорды. Аккорды для шестиструнной гитары. Другие песни можно найти на нашем сайте, воспользовавшись алфавитным указателем вверху страницы.


Слушать онлайн She Loves Me Not


Papa RoachShe Loves Me Not на Яндекс.Музыке


 
Ошибка в тексте? Выделите ошибку и нажмите Ctrl+Enter