!#----------------------------------PLEASE NOTE----------------------------------#
# This file is the author's own work and represents their interpretation of the #
# song. You may only use this file for private study, scholarship, or research. #
#-------------------------------------------------------------------------------#
Band: Papa Roach   
Title: She loves me not
Album: Lovehatetragedy
Transcribed by: CйSaR ChApARRo G.
Email: [email protected]

KEY
p =  Pull off
* =  Palm mute
~ =  Let sound = vibrato

Dropped D Tuning DADGBE (low-to-high) 

RIFF 1   (Verse)

E -------------------------------------------------------------------------
B -------------------------------------------------------------------------
G -------------------------------------------------------------------------
D ----5---9-9-----9---5-5----5---2-2----5---2-2----2*2*2--2-2---2*2--2--9-9
A-----5---9-9-----9---5-5----5---2-2----5---2-2----2*2*2--2-2---2*2--2--9-9
D ----5---9-9-----9---5-5----5---2-2----5---2-2----2*2*2--2-2---2*2--2--9-9

                                                                              
E --------------------------------------------------------------------------
B --------------------------------------------------------------------------
G --------------------------------------------------------------------------
D ------------9---5-5----5---2-2----5---2-2----2-2-2-----0-0---0-0--2--9-9--
A-------------9---5-5----5---2-2----5---2-2----2-2-2-----0-0---0-0--2--9-9--
D ------------9---5-5----5---2-2----5---2-2----2-2-2-----0-0---0-0--2--9-9--

                                                                              
E ----------------------------------------------------------------------
B ----------------------------------------------------------------------
G ----------------------------------------------------------------------
D ----------------9---5-5----5---2-2----5---2-2----2*2*2--2-2---2*2--2--
A-----------------9---5-5----5---2-2----5---2-2----2*2*2--2-2---2*2--2--
D ----------------9---5-5----5---2-2----5---2-2----2*2*2--2-2---2*2--2--


RIFF 2

E -------------------------------------------------------------------------
B -------------------------------------------------------------------------
G -------------------------------------------------------------------------
D -------9-9------------9---5-5----------5---2-2-------------2-2-4p2-------
A--------9-9-10p9-------9---5-5-7p5------5---2-2-4p2---------2-2-----5-5-0-
D -------9-9-----12-12--9---5-5-----8-8--5---2-2-----5-5-0---2-2-----------



RIFF 3   (Chorus)

E--------------------------------------------------------------------------
B--------------------------------------------------------------------------
G--------------------------------------------------------------------------
D----5-5-5-5-5-5--5--5------7-7-7-7-7-7--7-7------9-9-9-9-9-9--9-9-9-9-9-9-
A----5-5-5-5-5-5--5--5------7-7-7-7-7-7--7-7------9-9-9-9-9-9--9-9-9-9-9-9-
D----5-5-5-5-5-5--5--5------7-7-7-7-7-7--7-7------9-9-9-9-9-9--9-9-9-9-9-9-
 
                                                     She loves me not!!

RIFF 4

E -------------------------------------------------------------------------
B -------------------------------------------------------------------------
G -------------------------------------------------------------------------
D --9---5-5---5-5-5----7-7---7-7-7----9-9----------------------------------
A---9---5-5---5-5-5----7-7---7-7-7----9-9----------------------------------
D --9---5-5---5-5-5----7-7---7-7-7----9-9----------------------------------

RIFF 5

E-------------------------------------------------------------------------
B-------------------------------------------------------------------------
G-------------------------------------------------------------------------
D--5-5-5-5-5-5--5-5------7-7-7-7-7-7--7-7------9-9-9-9-9-9--9-9-9-9-9-9---
A--5-5-5-5-5-5--5-5------7-7-7-7-7-7--7-7------9-9-9-9-9-9--9-9-9-9-9-9---
D--5-5-5-5-5-5--5-5------7-7-7-7-7-7--7-7------9-9-9-9-9-9--9-9-9-9-9-9---

RIFF 6
E-----------------------------------------------------------------------
B--------------------------------------------------9---------9----------
G--------------------------------------------------9---------9----------
D----12-12-12-12-12----7-7-7-7-7-7--7-7------9-9-9-9---9-9-9-9----------
A----12-12-12-12-12----7-7-7-7-7-7--7-7------9-9-9-9---9-9-9-9----------
D----12-12-12-12-12----7-7-7-7-7-7--7-7------9-9-9-----9-9-9------------

RIFF 7

E-----------------------------------------------------------------------
B--------------------------------------------------9---------9----------
G--------------------------------------------------9---------9----------
D----12-12-12-12-12----7-7-7-7-7-7--7-7------9-9-9-9---9-9-9-9----------
A----12-12-12-12-12----7-7-7-7-7-7--7-7------9-9-9-9---9-9-9-9----------
D----12-12-12-12-12----7-7-7-7-7-7--7-7------9-9-9-----9-9-9------------



E-----------------------------------------------------------------------
B-----------------------------------------------------------------------
G-----------------------------------------------------------------------
D----12-12-12-12-12----7-7-7-7-7-7--7-7----9-9-9-9-9-9-9-9-9-9-9-9-9-9--
A----12-12-12-12-12----7-7-7-7-7-7--7-7----9-9-9-9-9-9-9-9-9-9-9-9-9-9--
D----12-12-12-12-12----7-7-7-7-7-7--7-7----9-9-9-9-9-9-9-9-9-9-9-9-9-9--


E-----------------------------------------------------------------------
B-----------------------------------------------------------------------
G-----------------------------------------------------------------------
D----12-12-12-12-12----7-7-7-7-7-7--7-7----9-9-9-9-9-9-9-~~~~~~~~~~--E--
A----12-12-12-12-12----7-7-7-7-7-7--7-7----9-9-9-9-9-9-9-~~~~~~~~~~--N--
D----12-12-12-12-12----7-7-7-7-7-7--7-7----9-9-9-9-9-9-9-~~~~~~~~~~--D--


Then you can hear a second guitar, It's played with RIFF 7:

RIFF 8
E -----------------------------------------------------------------------
B -----------------------------------------------------------------------
G -----------------------------------------------------------------------
D -----------------------------------------------------------------------
A --13-13-13-13-13-13--------------------------------------11-11-11-11-11
D --------------------15-15-15-15-15---13---12-12-12----15---------------


E -----------------------------------------------------------------------
B -----------------------------------------------------------------------
G -----------------------------------------------------------------------
D -----------------------------------------------------------------------
A --13-13-13-13-13-13----15-15-15-15-15-15-15-15-15-15-15--16-16-16-16-16
D -----------------------------------------------------------------------


E ---------------------------------------------------------------
B ---------------------------------------------------------------
G ---------------------------------------------------------------
D ---------------------------------------------------------------
A ---18-18-18-18-18-18-18-18-----20-20-20-20-20-20-20-20-20------
D ---------------------------------------------------------------


RIFF ORDER

RIFF 1
RIFF 2
RIFF 3    2X
RIFF 4
RIFF 1 
RIFF 2
RIFF 5    2X
RIFF 6    2X
RIFF 4
RIFF 1 
RIFF 2
RIFF 5    3X
RIFF 6 
RIFF 7 AND RIFF 8
That`s all. 


Текст, аккорды и табулатура для песни "She Loves Me Not", исполняет "Papa Roach".
Используемые в песне аккорды можно найти в разделе Как брать аккорды. Аккорды для шестиструнной гитары. Другие песни можно найти на нашем сайте, воспользовавшись алфавитным указателем вверху страницы.


Слушать онлайн She Loves Me Not


Papa RoachShe Loves Me Not на Яндекс.Музыке


 
Ошибка в тексте? Выделите ошибку и нажмите Ctrl+Enter