Papa Roach 
Revenge
tabbed by : Patrick Grodzki


hi , this is my second tab , my first tab was for SOAD suggestions ver.4
this is a great song from PR.
HEY; I LOOK FOR BANDMEMBERS I LIKE SOAD;PUDDLE OF MUDD; SUM41,BLINK 182
AND MUCH MORE ; WRITE ME!!!!!!!!!!!!!!!!!!!!!!!!!!!!!

intro: this is the intro:
E --22/4~~-55/4~-------------
A --22/4~~-55/4~-------------
D --22/4~~-55/4~-5/4/5/4/5/4- some 
g --------------------------- times
b ---------------------------
e ---------------------------

E --3/2~~~-3/2~~~-3/2~~~-3/2~~~-
A --3/2~~~-3/2~~~-3/2~~~-3/2~~~-
D --3/2~~~-3/2~~~-3/2~~~-3/2~~~-
g ------------------------------
b ------------------------------
e ------------------------------

Text:
E ----------------
A --2-------5--4--
D ----4-2-4--4--4-some
g ----------------times
b ----------------
e ----------------

Refrain:
E --22/4~~-55/4~-
A --22/4~~-55/4~-
D --22/4~~-55/4~-2X
g ---------------
b ---------------
e ---------------

Text:
E ------------------
A --2-------5---4---
D ----4-2-4---4---4-
g ------------------
b ------------------
e ------------------

second Refrain:
E --22/4~~-55/4~-
A --22/4~~-55/4~-
D --22/4~~-55/4~- 4X
g ---------------
b ---------------
e ---------------

...= (very) fast
after second refrain:
E --------------------
A --22-------5---4----
D --22-4-2-4-5-4-4-4--
g -----4-2-4---4---4--
b --------------------
e --------------------
       ..............
then:
E -------------------
A -------------------
D -------------------6X
g --9~~-7~~----------
b ---------12~~-10~~-
e -------------------

E --2-------5---4----
A --2-4-2-4-5-4-4-4--
D ----4-2-4---4---4--7X
g -------------------
b -------------------
e -------------------

after this:
E --222----------555-----444---------
A --222-4~-2~-4~-555-444-444-444-----
D ------4~-2~-4~-----444-----444-----4X
g -----------------------------------
b -----------------------------------
e -----------------------------------

Refrain:
E --22/4~~-55/4~~--
A --22/4~~-55/4~~--
D --22/4~~-55/4~~--2X
g -----------------
b -----------------
e -----------------

outro:
E -----------------
A --2-------5---4--
D ----4-2-4---4--4-4X
g -----------------
b -----------------
e -----------------

This is a great song from Papa Roach , i love it
and it is easy to play
any questions or corrections , write me a mail:[email protected]
thanks


Текст, аккорды и табулатура для песни "Revenge", исполняет "Papa Roach".
Используемые в песне аккорды можно найти в разделе Как брать аккорды. Аккорды для шестиструнной гитары. Другие песни можно найти на нашем сайте, воспользовавшись алфавитным указателем вверху страницы.


 
Ошибка в тексте? Выделите ошибку и нажмите Ctrl+Enter