Revenge-Papa Roach
Infest

Drop D
D A D G B E

gtr 2. w/ wah and delay

e-----------------------------------------------------------------
b---0--0--0--------1--1--0h1p0h1p0h1p0h1p0h1p0h1p0h1p0------------
g-----------------------------------------------------------------
d-----------------------------------------------------------------
a-----------------------------------------------------------------
d-----------------------------------------------------------------

gtr 1  Fig 1. x4

e-----------------------------------------------------------------
b-----------------------------------------------------------------
g-----------------------------------------------------------------
d---2--2--4---------5--5--4---------------------------------------
a---2--2--2---------3--3--2---------------------------------------
d---2--2--4---------5--5--4---------------------------------------

gtr 2.

e----------------------------------------------------2h3-3-3-3p2--
b---1--1--0h1p0h1h3p1h3p1p0h1p0h1p0-------------------------------
g------------------------------------2h4p2h4p2h4p2h4--------------
d-----------------------------------------------------------------
a-----------------------------------------------------------------
d-----------------------------------------------------------------

e-2-2-0h2-0h2-----------------------------------------------------
b-------------0--1--1--0h1p0h1p3p1p0h3p1p0h3p1p0h3p1p0h3p1p0-0----
g-----------------------------------------------------------------
d-----------------------------------------------------------------
a-----------------------------------------------------------------
d-----------------------------------------------------------------

e---------2h3-2h3-3p2-2p0-0h2------------0------------------------
b----------------------------------0h1h3---3p1p0------------------
g-2h4p2h4---------------------------------------------------------
d-----------------------------------------------------------------
a-----------------------------------------------------------------
d-----------------------------------------------------------------

...remember the girl...

e-----------------------------------------------------------------
b-----------------------------------------------------------------
g-----------------------------------------------------------------
d-5--4--------5--4--------5--4--------5--4------------------------
a-3--2--------3--2--------3--2--------3--2------------------------
d-5--4--------5--4--------5--4--------5--4-----------4/-----------

Verses Riff A

e-----------------------------------------------------------------
b-----------------------------------------------------------------
g-----------------------------------------------------------------
d-----------------------------------------------------------------
a---9-7-9-5-9-4-5---9-7-9-5-9-4-5---9-7-9-5-9-4-5---9-7-9-5-9-4---
d-9---------------9---------------9---------------9-------------4-

Chorus:

e-----------------------------------------------------------------
b-----------------------------------------------------------------
g-----------------------------------------------------------------
d---2--2--4-----5--5--4----------2--2--4-----5--5--4--------------
a---2--2--2-----3--3--2----------2--2--2-----3--3--2--------------
d---2--2--4-----5--5--4----------2--2--4-----5--5--4--------------

fill

e-----------------------------------------------------------------
b-----------------------------------------------------------------
g-----------------------------------------------------------------
d---2--2--4-----5--5---4-4-4-4-7-7-7-7----------------------------
a---2--2--2-----3--3---2-2-2-2-2-5-5-5----------------------------
d---2--2--4-----5--5---4-4-4-4-7-7-7-7----------------------------

...we’re in love...

e-----------------------------------------------------------------
b-----------------------------------------------------------------
g-----------------------------------------------------------------
d-5--4--x-4--x-4--x-x-4-4-7-7--5--4--x-4--x-4--x-x-4-4-7-7--------
a-3--2--x-2--x-2--x-x-2-2-5-5--3--2--x-2--x-2--x-x-2-2-5-5--------
d-5--4--x-4--x-4--x-x-4-4-7-7--5--4--x-4--x-4--x-x-4-4-7-7--------

Bridge: w/ tremolo

e-----------------------------------------------------------------
b-------------12------------------------12------------------------
g-9--------7--------10-----7-9-------7----------------------------
d-----------------------------------------------------------------
a-----------------------------------------------------------------
d-----------------------------------------------------------------

e-----------------------------------------------------------------
b------------12-----------------------12-----------------12-12-12-
g-9--------7------10-----10-9------7------10----7-9----7-10-10-10-
d-----------------------------------------------------------------
a-----------------------------------------------------------------
d-----------------------------------------------------------------

e-----------------------------------------------------------------
b--------------------------12-------------------------------------
g-------9------------7---------------10---------------------------
d-----------------------------------------------------------------
a-----------------------------------------------------------------
d-----------------------------------------------------------------

...nation, don’t you see that we’re in danger...

e-----------------------------------------------------------------
b-----------------------------------------------------------------
g-----------------------------------------------------------------
d---11--9-11-----11------------11--9-11-----11--------------------
a-9--9--7--9--12--9--11--12--9--9--7--9--12--9--11--12------------
d-9-----------12-----11--12--9-----------12-----11--12------------

6/4 time

...running out, we’re running out...

x4
e-----------------------------------------------------------------
b-----------------------------------------------------------------
g-----------------------------------------------------------------
d----------------------11--9-11-----------------------------------
a-9--9-9-9----7-7-7--9--9--7--9--0--7-----------------------------
d-9--9-9-9----7-7-7--9-----------0--7-----------------------------

Outro Riff:

e-----------------------------------------------------------------
b-0-7-5-7-3-7-2-3-0-7-5-7-3-7-2-3-0-7-5-7-3-7-2-3-0-7-5-7---------
g-----------------------------------------------------------------
d-----------------------------------------------------------------
a-----------------------------------------------------------------
d-----------------------------------------------------------------

that’s all

trevor jones 
[email protected]


Текст, аккорды и табулатура для песни "Revenge", исполняет "Papa Roach".
Используемые в песне аккорды можно найти в разделе Как брать аккорды. Аккорды для шестиструнной гитары. Другие песни можно найти на нашем сайте, воспользовавшись алфавитным указателем вверху страницы.


 
Ошибка в тексте? Выделите ошибку и нажмите Ctrl+Enter