Artist- Papa Roach
Song- Life is a Bullet
Tabber- Iconoclast
Tuning- Db,Ab,Db,Gb,Bb,Eb

Intro 1/Verse
----------------------------------------------------------------
----------------------------------------------------------------
----------------------------------------------------------------
----------10-10-10-10-10-10-10-10-----------12-12-12-12---------
---5/12------------------------------5/12---------------8-8-8-8-
-0------0--------------------------0------0---------------------

-------------------------------------------------------------------
-------------------------------------------------------------------
-------------------------------------------------10-10-------10-10-
----------10-10-10-10-10-10-10-10----------12-12-------12-12-------
---5/12-----------------------------5/12---------------------------
-0------0-------------------------0------0-------------------------

Variation at the end of intro 1
---------------------------------------
---------------------------------------
---------------------------------------
----------10-10-10-10---------0-0-0----
---5/12---------------7-7-7-7-0-0-0----
-0------0---------------------0-0-0----

Intro 2 (00:16)
-------------------------------------------------
-------------------------------------------------
---------5-5-5-5-5-5-5-5---------7-7-7-7---------
-0-0-7-0-5-5-5-5-5-5-5-5-0-0-7-0-7-7-7-7-3-3-3-3-
-0-0-7-0-3-3-3-3-3-3-3-3-0-0-7-0-5-5-5-5-3-3-3-3-
-0-0-7-0-----------------0-0-7-0---------3-3-3-3-

-------------------------------------------------
-------------------------------------------------
---------5-5-5-5-5-5-5-5-------------------------
-0-0-7-0-5-5-5-5-5-5-5-5-0-0-7-0-7-7-7-7-7-7-7-7-
-0-0-7-0-3-3-3-3-3-3-3-3-0-0-7-0-5-5-8-8-5-5-8-8-
-0-0-7-0-----------------0-0-7-0-----------------

Variation at the end of Intro 2
---------------------------------------------------------
---------------------------------------------------------
---------5-5-5-5-----------------------------------------
-0-0-7-0-5-5-5-5-2-2-2-2-0-0-7-0-7-7-7-7-7-7-7-7---------
-0-0-7-0-3-3-3-3-2-2-2-2-0-0-7-0-5-5-8-8-5-5-8-8---------
-0-0-7-0---------2-2-2-2-0-0-7-0-------------------------

Prechorus (single me out...)
----------------------------------------------------------
-------3-------3------------------------------------------
-------2-------2-------7----------------------------------
-0-0-0-0-0-0-0-0-5-5-5-5-8-8-8-10-10-10-10-12-------------
-0-0-0-0-0-0-0-0-5-5-5-5-8-8-8-8--10-10-10-10-------------
-0-0-0-0-0-0-0-0-5-5-5-5-8-8-8-8--10-10-10-10-------------

Chorus
-------------------------------------------------
-------------------------------------------------
-------9-10-------9-10-------9-10----------9-5---
-5-5-5-x--x-7-7-7-x--x-8-8-8-x--x-10-10-10-x-x---
-5-5-5-7--8-7-7-7-7--8-8-8-8-7--8-10-10-10-7-3---
-5-5-5------7-7-7------8-8-8------10-10-10-------

-------------------------------------------------
-------------------------------------------------
-------9-10-------9-10-------9-10----------14-10-
-5-5-5-x--x-7-7-7-x--x-8-8-8-x--x-10-10-10--x--x-
-5-5-5-7--8-7-7-7-7--8-8-8-8-7--8-10-10-10-12--8-
-5-5-5------7-7-7------8-8-8------10-10-10-------

Bridge (2:06) Repeat as needed
-------------------------------------------------
-------------------------------------------------
-------------------------------------------------
-------------------------------------------------
---8---7-8-5---8---7-8-5p0-----------------------
-0---0-------0---0-------------------------------

(2:22) Play 1st line once, then repeat 2nd line as needed
-------------------------------------------------
-------------------------------------------------
---------------------9-----------------10--------
-8-7/87-3/53-----7---3-3h5-3-------7-----------
-8-7/87-3/53---5-------------3---8------10-10--
-8-7/87-3/53-0-----------------0--------10-10--

-------------------------------------------------
-------------------------------------------------
-------9-------10--------------------------------
-----7-------7-----------------------------------
---5-------8-------------------------------------
-0-------0---------------------------------------

'Cause im in love with too many things' at 3:06 is the same as the chorus. at the end, when it's sung
again, the prechorus is played with the first few notes palm muted and sped up.

Enjoy.








Текст, аккорды и табулатура для песни "Life Is A Bullet", исполняет "Papa Roach".
Используемые в песне аккорды можно найти в разделе Как брать аккорды. Аккорды для шестиструнной гитары. Другие песни можно найти на нашем сайте, воспользовавшись алфавитным указателем вверху страницы.


Слушать онлайн Life Is A Bullet


Papa RoachLife Is A Bullet на Яндекс.Музыке


 
Ошибка в тексте? Выделите ошибку и нажмите Ctrl+Enter