Last Resort - Papa Roach

By: Jon Craven ([email protected])
For questions, comments, feedback, an outline of the timing, write the above
address.

(4/4, changes noted)(91 bpm)
5-string in standard tuning

r - eighth rest
R - quarter rest
/ - slide up
. - sixteenth rest
h - hammer-on

Intro: (0:04)
|----------------|----------------|----------------|----------------|
|----------------|----------------|----------------|----------------|
|----------------|----------------|----------------|----------------|
|----------------|----------------|----------------|----------------|
|55r-R---33r-R---|11r-R---00r-33r-|55r-R---33r-R---|11r-R---00r-33r-|

|----------------|----------------|
|----------------|----------------|
|----------------|--------------5-|
|----------------|----------------|
|55r-R---33r-R---|11r-R---00r-33--|

Verse 1: (0:21)
|----------------|----------------|----------------|----------------|
|----------------|----------------|----------------|----------------|
|----------------|----------------|----------------|--------------5-|
|----------------|----------------|----------------|----------------|
|55r-R---33r-R---|11r-R---00r-33r-|55r-R---33r-R---|11r-R---00r-33--|

|----------------|----------------|----------------|----------------|
|----------------|----------------|----------------|----------------|
|----------------|----------------|----------------|----------------|
|----------------|----------------|----------------|----------------|
|55r-R---33r-R---|11r-R---00r-33r-|55r-R---33r-R---|11r-R---00003333|

Chorus 1: (0:42)
|----------------|----------------|----------------|----------------|
|----------------|----------------|----------------|----------------|
|--------33333333|----------------|--------33333333|----------------|
|00000000--------|----------------|00000000--------|----------------|
|----------------|3333333333333333|----------------|3333333333333333|

Fill: (0:52)
|----------------|----------------|
|----------------|----------------|
|----------------|----------------|
|----------------|----------------|
|55r-R---33r-R---|11r-R---00r-33r-|

Verse 2: (0:58)
|----------------|----------------|----------------|----------------|
|----------------|----------------|----------------|----------------|
|----------------|----------------|--------5----5--|--------------5-|
|----------------|----------------|----------------|----------------|
|55r-R---33r-R---|11r-R---00r-33r-|55r-R--0-33-3--3|11r-R---00r-33--|

|----------------|----------------|----------------|----------------|
|----------------|----------------|----------------|----------------|
|----------------|----------------|----------------|----------------|
|----------------|----------------|----------------|----------------|
|55r-R---33r-R---|11r-R---00r-33r-|55r-R---33r-R---|11r-R---00003333|

Chorus 2: (1:19)
|----------------|----------------|----------------|-----------------|
|----------------|----------------|----------------|-----------------|
|--------33333333|----------------|--------33333333|--------/55555535|
|00000000--------|----------------|00000000--------|-----------------|
|----------------|3333333333333333|----------------|33333333---------|

Bridge: (1:29)
|----------------|----------------|----------------|----------------|
|22222222--------|----------------|-0222220--------|----------------|
|--------33333333|--------22222222|2-------33333333|--------22222222|
|----------------|33333333--------|----------------|33333333--------|
|----------------|----------------|----------------|----------------|

Interlude: (1:40)
|----------------|----------------|----------------|----------------|
|2-22222.--------|----------------|2-22222.--------|----------------|
|----------------|3-33333.2-225525|----------------|3-33333.22-25---|
|--------3-33333.|----------------|--------3-33333.|----------------|
|----------------|----------------|----------------|--------------3-|

Verse 3: (1:51)
|----------------|----------------|----------------|----------------|
|----------------|----------------|----------------|----------------|
|----------------|----------------|----------------|----------------|
|----------------|----------------|----------------|----------------|
|55r-R---33r-R---|11r-R---00r-33r-|55r-R---33r-R---|11r-R---00r-33r-|

|----------------|----------------|----------------|----------------|
|----------------|----------------|----------------|----------------|
|----------------|----------------|----------------|----------------|
|----------------|----------------|----------------|----------------|
|55r-R---33r-R---|11r-R---00r-33r-|55r-R---33r-R---|11r-R---00r-33r-|

|----------------|----------------|
|----------------|----------------|
|----------------|----------------|
|----------------|----------------|
|55r-R---33r-R---|11r-R---00003333|

Chorus 2
Bridge
Chorus 2

Outro: (2:54)
|--|------------------------|----------------|--------------------|
|6:|22222220----------------|22222222--------|--------------------|
|4:|--------33333333--------|--------33333333|3h5553h5553h5553h555|
|--|------------------------|----------------|--------------------|
|--|----------------33333333|----------------|--------------------|

|----------------|----------------|----------------|----------------|
|22222222--------|----------------|22222220--------|----------------|
|--------33333333|5555----5555----|--------33333333|----------------|
|----------------|----------------|----------------|----------------|
|----------------|----3333----3333|----------------|3333333333333333|

|----------------|----------------|
|2222222222222222|2-r-R---R---R---|
|----------------|----------------|
|----------------|----------------|
|----------------|----------------|

Rest till end


Текст, аккорды и табулатура для песни "Last Resort", исполняет "Papa Roach".
Используемые в песне аккорды можно найти в разделе Как брать аккорды. Аккорды для шестиструнной гитары. Другие песни можно найти на нашем сайте, воспользовавшись алфавитным указателем вверху страницы.


Слушать онлайн Last Resort


Papa RoachLast Resort на Яндекс.Музыке


 
Ошибка в тексте? Выделите ошибку и нажмите Ctrl+Enter