Author/Artist: Papa Roach
          Title: GrrBrr
          Album: Old Friends From Young Years
          Transcribed by: Willy Wonka
          Email: [email protected]
          
          Sounds a lot like their old stuff from Potatoes 
          For Christmas, but it's a good song.
          Hard to explain, so you might try listening to it 
          before attempting to play... have fun!
          
          -----------------|
          -----------------|
          -----------------|
          -----------------|
          -66----66----6---|
          ----55----55---5-|
          (bass intro)
          
          |------------------------------------------------------------
          |------------------------------------------------------------
          |------------------------------------------------------------
          |------------------------------------------------------------
          |-6/4-6/4-66/44-66/44-6/4-66/44-66/44-6----------------------
          |-4/2-4/2-44/22-44/22-6/4-44/22-44/22-4----------------------
          (crazy intro guitar riff)
                                                                                        
          
          ---------------------|
          ---------------------|
          ---------------------|
          ---------------------|
          ---------------------|
          -0-5-0-3-0-2-0-3-0-6-|
          (more bass...)
          
          |-12-------11-|
          |----12-------|
          |-------12----|
          |-------------|
          |-------------|
          |-------------|
          (verse riff, starts in the middle of the song)


Текст, аккорды и табулатура для песни "Grrbrr", исполняет "Papa Roach".
Используемые в песне аккорды можно найти в разделе Как брать аккорды. Аккорды для шестиструнной гитары. Другие песни можно найти на нашем сайте, воспользовавшись алфавитным указателем вверху страницы.


 
Ошибка в тексте? Выделите ошибку и нажмите Ctrl+Enter