drop D tuning:
(low to high)  D-A-D-G-B-E

Gtr 1 (dist.)
slight PM...................................................
E-----------------------------------------------------------
B-----------------------------------------------------------
G--------10----9-------------10-----------------------------
D--12-12----12---10----12-12----12-12-10-10-12-10-----------
B-------------------12--------------------------------------
D-----------------------------------------------------------

slight PM...................................................
E-----------------------------------------------------------
B-----------------------------------------------------------
G--------10---9-------------10------------------------------
D--12-12---12---10----12-12---12-10-------------------------
B------------------12---------------12-12-13-12-------------
D-----------------------------------------------------------

Gtr 2 (dist  & wah-wah)
E-----------------------------------------------------------
B-15---15---15---15---15---15---15---15---15----------------
G-----------------------------------------------------------
D-12---12---12---12---12---12---12---12---12----------------
B-----------------------------------------------------------
D-----------------------------------------------------------

still Gtr  2 
E-----------------------------------------------------------
B-15---15---15---15---15---15---15---15---15----------------
G-----------------------------------------------------------
D-12---12---12---12---12---12---12---12---12----------------
B-----------------------------------------------------------
D-----------------------------------------------------------

now Gtr 1 (dist.)
E-----------------------------------------------------------
B-----------------------------------------------------------
G-----10-10---9----------10---------------------------------
D-----x--x----x----------x------10--10--10--10--10----------
B-0-0-8--8--0-7-10-7-0-0-8--0-7-10--10--10--10--10----------
D-0-0-------0---10-7-0-0----0-7-10--10--10--10--10----------

E-----------------------------------------------------------
B-----------------------------------------------------------
G-----10-10---9----------10------5--5--5--5--5--------------
D-----x--x----x----------x-------3--3--3--3--3--------------
B-0-0-8--8--0-7-10-7-0-0-8--0-0--3--3--3--3--3--------------
D-0-0-------0---10-7-0-0----0-0--3--3--3--3--3--------------

Gtr 2 (dist.)
 pm..  pm.          pm.   pm..
E-----------------------------------------------------------
B-----------------------------------------------------------
G-----------------------------------------------------------
D-----------------------------------------------------------
B-----8----7-------------8-----7----------------------------
D-0-0----0----10--7--0-0---0-0----10--7--7------------------


  pm..  pm.          pm.   pm..
E-----------------------------------------------------------
B-----------------------------------------------------------
G-----------------------------------------------------------
D-----------------------------------------------------------
B-----8----7-------------8-----7----------------------------
D-0-0----0----10--7--0-0---0-0----10--7--7------------------


Текст, аккорды и табулатура для песни "Blood Brothers", исполняет "Papa Roach".
Используемые в песне аккорды можно найти в разделе Как брать аккорды. Аккорды для шестиструнной гитары. Другие песни можно найти на нашем сайте, воспользовавшись алфавитным указателем вверху страницы.


 
Ошибка в тексте? Выделите ошибку и нажмите Ctrl+Enter