Into

Fade in

C)-------------------------------------------
G)-------------------------------------------
C)8^10-(x4)----------------------------------
F)----------------7-8-7-10-8-7---8-7-10------
A)-----------------------------11------------
D)-------------------------------------------

2nd Guitar
C)10--10//-6-//10--into verse
G)10--10//-6-//10--
C)10--10//-6-//10--
F)-----------------
A)-----------------
D)-----------------

Verse

C)10--10//-6-//3//-1-
G)10--10//-6-//3//-1-
C)10--10//-6-//3//-1-
F)-------------------
A)-------------------
D)-------------------

Pre Chorus
                     Harm-
C)-3-3-3-5-5-5-6-6-6-5-5-5
G)-3-3-3-5-5-5-6-6-6------
C)-3-3-3-5-5-5-6-6-6------
F)------------------------
A)------------------------
D)------------------------

Chorus

C)8^10-10-10-13-3-3-3-3-6-6-3-3
G)-----10-10-13-3-3-3-3-6-6-3-3
C)-----10-10-13-3-3-3-3-6-6-3-3
F)-----------------------------
A)-----------------------------
D)-----------------------------

Interlude

play intro with both guitars


Текст, аккорды и табулатура для песни "Black Clouds", исполняет "Papa Roach".
Используемые в песне аккорды можно найти в разделе Как брать аккорды. Аккорды для шестиструнной гитары. Другие песни можно найти на нашем сайте, воспользовавшись алфавитным указателем вверху страницы.


Слушать онлайн Black Clouds


Papa RoachBlack Clouds на Яндекс.Музыке


 
Ошибка в тексте? Выделите ошибку и нажмите Ctrl+Enter