Album: Infest
Tuning: Drop D (D, A, D, G, B, e)
Notes: Both guitars are on the exact same distortion. Verse's can be played with
just one guitar but it would give it that fuller sound if both played. This is an
awesome song and i swear by these tabs 110%... killa band ppl!!! (easy to play
also) damn... i think the tab stuffed up.... Grrrrrrr

Intro Riff
 G1 - Distortion
|---------------------------|---------------------------|
|---------------------------|---------------------------|
|---------10-10-10-10---10--|---------10-10-10-10---10--|
|-5-5-5-5-x--x--x--x----x---|-5-5-5-5-x--x--x--x----x---|
|-5-5-5-5-8--8--8--8----8---|-5-5-5-5-8--8--8--8----8---|
|-5-5-5-5-------------------|-5-5-5-5-------------------|
|G2 - same as G1            |                           |
|---------------------------|---------------------------|
|---------------------------|---------------------------|
|---------------------------|---------------------------|
|-5-5-5-5-------------------|-5-5-5-5-------------------|
|-5-5-5-5-------------------|-5-5-5-5-------------------|
|-5-5-5-5-------------------|-5-5-5-5-------------------|

|----------------------------------|----------------------------------|
|----------------------------------|----------------------------------|
|---------10-10-10-108-8-8-87-7--|---------10-10-10-108-8-8-87-7--|
|-1-1-1-1-x--x--x--x--x-x-x-x-x-x--|-1-1-1-1-x--x--x--x--x-x-x-x-x-x--|
|-1-1-1-1-8--8--8--8--6-6-6-6-5-5--|-1-1-1-1-8--8--8--8--6-6-6-6-5-5--|
|-1-1-1-1--------------------------|-1-1-1-1--------------------------|
|                                  |                                  |
|----------------------------------|----------------------------------|
|----------------------------------|----------------------------------|
|----------------------------------|----------------------------------|
|-1-1-1-1--------------------------|-1-1-1-1--------------------------|
|-1-1-1-1--------------------------|-1-1-1-1--------------------------|
|-1-1-1-1--------------------------|-1-1-1-1--------------------------|

Both G's
|---------------------------|---------------------------|
|---------------------------|---------------------------|
|---------10-10-10-10---10--|---------10-10-10-10---10--|
|-5-5-5-5-x--x--x--x----x---|-5-5-5-5-x--x--x--x----x---|
|-5-5-5-5-8--8--8--8----8---|-5-5-5-5-8--8--8--8----8---|
|-5-5-5-5-------------------|-5-5-5-5-------------------|

|----------------------------------|----------------------------------|
|----------------------------------|----------------------------------|
|---------10-10-10-108-8-8-87-7--|---------10-10-10-108-8-8-87-7--|
|-1-1-1-1-x--x--x--x--x-x-x-x-x-x--|-1-1-1-1-x--x--x--x--x-x-x-x-x-x--|
|-1-1-1-1-8--8--8--8--6-6-6-6-5-5--|-1-1-1-1-8--8--8--8--6-6-6-6-5-5--|
|-1-1-1-1--------------------------|-1-1-1-1--------------------------|

Verse Riff
Do this twice
|------------------------|------------------------|
|------------------------|------------------------|
|-----------------7--5-8-|-----------------7--5-8-|
|-5-5-5-5-5-5-5-5-x--x-x-|-5-5-5-5-5-5-5-5-x--x-x-|
|-5-5-5-5-5-5-5-5-5--3-6-|-5-5-5-5-5-5-5-5-5--3-6-|
|-5-5-5-5-5-5-5-5--------|-5-5-5-5-5-5-5-5--------|
                  .                        .
Do this twice
|------------------------|------------------------|
|------------------------|------------------------|
|-----------------7--5-8-|-----------------7--5-8-|
|-1-1-1-1-1-1-1-1-x--x-x-|-1-1-1-1-1-1-1-1-x--x-x-|
|-1-1-1-1-1-1-1-1-5--3-6-|-1-1-1-1-1-1-1-1-5--3-6-|
|-1-1-1-1-1-1-1-1--------|-1-1-1-1-1-1-1-1--------|
                  .                        .
Verse Riff again

Chorus
Do this twice.
|----------------------------------------------------------------------------
|----------------------------------------------------------------------------
|----------------------------------------------------------------------------
|-5-5-5-5-5-5-5-5-3-3-3-3-3-3-3-3-5-5-5-5-5-5-5-5-3-3-3-3-3-3-3-3-1-1-1-1-1-1
|-5-5-5-5-5-5-5-5-3-3-3-3-3-3-3-3-5-5-5-5-5-5-5-5-3-3-3-3-3-3-3-3-1-1-1-1-1-1
|-5-5-5-5-5-5-5-5-3-3-3-3-3-3-3-3-5-5-5-5-5-5-5-5-3-3-3-3-3-3-3-3-1-1-1-1-1-1

------------------------------------------------------|
------------------------------------------------------|
------------------------------------------------------|
-1-1-3-3-3-3-3-3-3-3-1-1-1-1-1-1-1-1-3-3-3-3-3-3-3-3--|
-1-1-3-3-3-3-3-3-3-3-1-1-1-1-1-1-1-1-3-3-3-3-3-3-3-3--|
-1-1-3-3-3-3-3-3-3-3-1-1-1-1-1-1-1-1-3-3-3-3-3-3-3-3--|

Do this 3 times
|------------------------|------------------------|
|------------------------|------------------------|
|-----------------7--5-8-|-----------------7--5-8-|
|-5-5-5-5-5-5-5-5-x--x-x-|-5-5-5-5-5-5-5-5-x--x-x-|
|-5-5-5-5-5-5-5-5-5--3-6-|-5-5-5-5-5-5-5-5-5--3-6-|
|-5-5-5-5-5-5-5-5--------|-5-5-5-5-5-5-5-5--------|
                  .                        .
Do this twice
|------------------------|------------------------|
|------------------------|------------------------|
|-----------------7--5-8-|-----------------7--5-8-|
|-1-1-1-1-1-1-1-1-x--x-x-|-1-1-1-1-1-1-1-1-x--x-x-|
|-1-1-1-1-1-1-1-1-5--3-6-|-1-1-1-1-1-1-1-1-5--3-6-|
|-1-1-1-1-1-1-1-1--------|-1-1-1-1-1-1-1-1--------|
                  .                        .
Chorus again

Intro

Bridge
|-----------------------------------------------------------------
|-----------------------------------------------------------------
|-----------------------------------------------------------------
|-5-5-5-5-5-5-5-5-8-8-8-8-8-8-8-8-5-5-5-5-5-5-5-5-8-8-8-8-8-8-8-8-
|-5-5-5-5-5-5-5-5-8-8-8-8-8-8-8-8-5-5-5-5-5-5-5-5-8-8-8-8-8-8-8-8-
|-5-5-5-5-5-5-5-5-8-8-8-8-8-8-8-8-5-5-5-5-5-5-5-5-8-8-8-8-8-8-8-8-

-----------------------------------------------------------------
-----------------------------------------------------------------
-----------------------------------------------------------------
-1-1-1-1-1-1-1-1-1-1-1-1-1-1-1-1-1-1-1-1-1-1-1-1-1-1-1-1-1-1-1-1-
-1-1-1-1-1-1-1-1-1-1-1-1-1-1-1-1-1-1-1-1-1-1-1-1-1-1-1-1-1-1-1-1-
-1-1-1-1-1-1-1-1-1-1-1-1-1-1-1-1-1-1-1-1-1-1-1-1-1-1-1-1-1-1-1-1-

-----------------------------------|
-----------------------------------|
-----------------------------------|
-----------------------------------|
-----------------------------------|
-0-0-0-0-0-0-0-0-0-0-0-0-0-0-0-0-0-|
 pm...............................|

----------------------------------|
----------------------------------|
----------------------------------|
-3-3-3-3-3-3-3-3-3-3-3-3-3-3-3-3--|
-3-3-3-3-3-3-3-3-3-3-3-3-3-3-3-3--|
-3-3-3-3-3-3-3-3-3-3-3-3-3-3-3-3--|

Chorus again

Outro
Do this three times
|-----------------------------------
|-----------------------------------
|-----------------------------------
|-8-8-8-8-8-8-8-8-8-8-8-8-8-8-8-8-8-
|-5-5-5-5-5-5-5-5-5-5-5-5-5-5-5-5-5-
|-5-5-5-5-5-5-5-5-5-5-5-5-5-5-5-5-5-

---------------------------------------------
---------------------------------------------
10-10-10-10-10-10-10-10-10-10-10-10-10-10-10-
10-10-10-10-10-10-10-10-10-10-10-10-10-10-10-
8--8--8--8--8--8--8--8--8--8--8--8--8--8--8--
8--8--8--8--8--8--8--8--8--8--8--8--8--8--8--

-------------------------------------------------
-------------------------------------------------
-------------------------------------------------
-12-12-12-12-12-12-12-12-12-12-12-12-12-12-12-12-
-12-12-12-12-12-12-12-12-12-12-12-12-12-12-12-12-
-12-12-12-12-12-12-12-12-12-12-12-12-12-12-12-12-

---------------------------------|
---------------------------------|
---------------------------------|
-3-3-3-3-3-3-3-3-3-3-3-3-3-3-3-3-|
-3-3-3-3-3-3-3-3-3-3-3-3-3-3-3-3-|
-3-3-3-3-3-3-3-3-3-3-3-3-3-3-3-3-|
G2 plays this 3rd (last) time    |
---------------------------------|
---------------------------------| 
---------------------------------|
-0-3-3-0-3-3-0-3-3-0-3-0-3-3-3-3-|
-0-3-3-0-3-3-0-3-3-0-3-0-3-3-3-3-|
-0-3-3-0-3-3-0-3-3-0-3-0-3-3-3-3-|

|------------------------|------------------------|
|------------------------|------------------------|
|-----------------7--5-8-|-----------------7--5-8-|
|-5-5-5-5-5-5-5-5-x--x-x-|-5-5-5-5-5-5-5-5-x--x-x-|
|-5-5-5-5-5-5-5-5-5--3-6-|-5-5-5-5-5-5-5-5-5--3-6-|
|-5-5-5-5-5-5-5-5--------|-5-5-5-5-5-5-5-5--------|
                  .                        .

|------------------------|-----------------------------|
|------------------------|-----------------------------|
|-----------------7--5-8-|-----------------10-10-12--8-|
|-5-5-5-5-5-5-5-5-x--x-x-|-5-5-5-5-5-5-5-5-x--x--x---x-|
|-5-5-5-5-5-5-5-5-5--3-6-|-5-5-5-5-5-5-5-5-8--8--10--6-|
|-5-5-5-5-5-5-5-5--------|-5-5-5-5-5-5-5-5-------------|
                  .

OR You Can Use This As The Last Part Of The Song...

|------------------------|--------------------------------------|
|------------------------|--------------------------------------|
|-----------------7--5-8-|-----------------------10-10-12-8-----|
|-5-5-5-5-5-5-5-5-x--x-x-|-0-3-3-0-3-3-0-3-3-0---x--x--x--x-----|
|-5-5-5-5-5-5-5-5-5--3-6-|-0-3-3-0-3-3-0-3-3-0---8--8--10-6-----|
|-5-5-5-5-5-5-5-5--------|-0-3-3-0-3-3-0-3-3-0------------------|
                  .

Feedback is welcome... soooo... ne comments? Corrections? etc etc... just
email... [email protected]
GO HEAVY OR GO HOME m/m/


Текст, аккорды и табулатура для песни "Binge", исполняет "Papa Roach".
Используемые в песне аккорды можно найти в разделе Как брать аккорды. Аккорды для шестиструнной гитары. Другие песни можно найти на нашем сайте, воспользовавшись алфавитным указателем вверху страницы.


 
Ошибка в тексте? Выделите ошибку и нажмите Ctrl+Enter