Intro 1 (Distortion)
 
 
4:-4-3-6-4-3~4---4-3-6-4-3~4~~--4-3-6-4-3~4---4-3-6-4-3-4-1- 
5:-------------2--------------1--------------4--------------- x2
 
Intro 2 (Distortion)
 
 
  D# C#m
1:-6--4--
2:-6--4--
3:-8--6-- x2
4:-8--6--
5:-6--4--
6:-6--4--
 
 
  Bb C#m
1:-1--4--
2:-1--4--
3:-3--6--
4:-3--6-- x2
5:-1--4--
6:-1--4--
 
 
  D# C#m
1:-6--4--
2:-6--4--
3:-8--6-- x2
4:-8--6--
5:-6--4--
6:-6--4--
 
 
  Bb Bm F#m C#m
1:-1--2--2--4
2:-1--2--2--4
3:-3--4--2--6
4:-3--4--4--6
5:-1--2--4--4
6:-1--2--2--4
 
 
Version (все аккорды Palm muting)
 
D F#m C#m D (после каждого аккорда) 4:---6-4-3~  
 
 
Chorus (Distortion)
 
  D# C#m
1:-6--4--    
2:-6--4--   
3:-8--6-- x2 
4:-8--6--
5:-6--4--       
6:-6--4--        ------
                        
                          x2
  Bb C#m                /
1:-1--4--        ------/
2:-1--4--       /
3:-3--6--
4:-3--6-- x2
5:-1--4--
6:-1--4--
 
 
 
 
 
Interlude (money...power strength..obsession..)
 
D# Bb Bm F#m C#m
 
intro 1
 
потом до конца припев


Текст, аккорды и табулатура для песни "Between Angels And Insects", исполняет "Papa Roach".
Используемые в песне аккорды можно найти в разделе Как брать аккорды. Аккорды для шестиструнной гитары. Другие песни можно найти на нашем сайте, воспользовавшись алфавитным указателем вверху страницы.


Слушать онлайн Between Angels and Insects


Papa RoachBetween Angels and Insects на Яндекс.Музыке


 
Ошибка в тексте? Выделите ошибку и нажмите Ctrl+Enter