This is my first tabs, so if i make some mistake please e-mail me, thx

intro
e-----------------------------------------------------------
b-----------------------------------------------------------
g-----------------------------------------------------------
d---3--2--5--3--2h3--3--2--5--3--2h3--3--2--5--3--2h3-------
a-5--5--5--5--5----1--1--1--1--1----0--0--0--0--0-----------
e-----------------------------------------------------------

e-----------------------------------------------------------
b-----------------------------------------------------------
g-----------------------------------------------------------
d---3--2--5--3--2h3-----------------------------------------
a-3--3--3--3--3---------------------------------------------
e-----------------------------------------------------------

intro 
e-----------------------------------------------------------
b-----------------------------------------------------------
g-----------------------------------------------------------
d-12-12-12-1210-10-10-10-10-10-12-12-12-1210-10-10-10-10--
a-12-12-12-1210-10-10-10-10-10-12-12-12-1210-10-10-10-10--
e-10-10-10-10-8--8--8--8--8--8-10-10-10-10-8--8--8--8--8--

e-----------------------------------------------------------
b-----------------------------------------------------------
g-----------------------------------------------------------
d-7-7-7-710-10-10-10-10-10-7-7-7-710-10-10-10-10-10-------
a-7-7-7-710-10-10-10-10-10-7-7-7-710-10-10-10-10-10-------
e-5-5-5-5-8--8--8--8--8--8-5-5-5-5-8--8--8--8--8--8-------

Verse

e-----------------------------------------------------------
b-----------------------------------------------------------
g-77777-----------------------------------------------------
d-77777-5-5-5-5-3--22222-5-5-5-5-3--22222-5-5-5-5-3---------
a-55555-5----------22222-5----------22222-5-----------------
e------------------11111------------11111-------------------
 [ P.M ]          [ P.M ]          [ P.M ]

repeat that after and then it goes like this

e-----------------------------------------------------------
b-----------------------------------------------------------
g-----------------------------------------------------------
d-22222-----------------------------------------------------
a-22222--1-3-3-1-3-3-1-3------------------------------------
e-11111-----------------------------------------------------

chorus

e-----------------------------------------------------------
b-----------------------------------------------------------
g-----------------------------------------------------------
d-12-12-12-1210-10-10-10-10-10-12-12-12-1210-10-10-10-10--
a-12-12-12-1210-10-10-10-10-10-12-12-12-1210-10-10-10-10--
e-10-10-10-10-8--8--8--8--8--8-10-10-10-10-8--8--8--8--8--

e-----------------------------------------------------------
b-----------------------------------------------------------
g-----------------------------------------------------------
d-7-7-7-710-10-10-10-10-10-7-7-7-710-10-10-10-10-10-----
a-7-7-7-710-10-10-10-10-10-7-7-7-710-10-10-10-10-10-----
e-5-5-5-5-8--8--8--8--8--8-5-5-5-5-8--8--8--8--8--8-----


e-----------------------------------------------------------
b-----------------------------------------------------------
g-----------------------------------------------------------
d-12-12-12-1210-10-10-10-10-10-12-12-12-1210-10-10-10-10--
a-12-12-12-1210-10-10-10-10-10-12-12-12-1210-10-10-10-10--
e-10-10-10-10-8--8--8--8--8--8-10-10-10-10-8--8--8--8--8--

e-----------------------------------------------------------
b-----------------------------------------------------------
g-----------------------------------------------------------
d-7-7-7-710-10-10-10-10-10-7-7-7-710-10-10-10-10-10-------
a-7-7-7-710-10-10-10-10-10-7-7-7-710-10-10-10-10-10-------
e-5-5-5-5-8--8--8--8--8--8-5-5-5-5-8--8--8--8--8--8-------

Bridge

e-----------------------------------------------------------
b-----------------------------------------------------------
g-7------3--------------5-----------------------------------
d-7------3-------7------5-----------------------------------
a-5------1-------7------3-----------------------------------
e----------------5------------------------------------------


Текст, аккорды и табулатура для песни "Between Angels And Insects", исполняет "Papa Roach".
Используемые в песне аккорды можно найти в разделе Как брать аккорды. Аккорды для шестиструнной гитары. Другие песни можно найти на нашем сайте, воспользовавшись алфавитным указателем вверху страницы.


Слушать онлайн Between Angels and Insects


Papa RoachBetween Angels and Insects на Яндекс.Музыке


 
Ошибка в тексте? Выделите ошибку и нажмите Ctrl+Enter