Song: We'll gring that axe for a long time
Artist: Pantera
Album: Reinventing the steel
Tabbed by: Mats Erik Engelsvoll   ([email protected])


Intro			  Verse
D-----------------------|--------------------------------------------|
A-----------------------|--------------------------------------------|
F-----------------------|--------------------------------------------|
C-----------------------|--------------------------------------------|
G-----------------------|--------------------------------------------|
D-2-3-1-2-0--2-3-1-2-0--|--3-5-2-3-0-3-2-0---------------------------|			  



D-------------------------------|-------------------------------------------|
A-------------------------------|-------------------------------------------|
F-------------------------------|-------------------------------------------|
C-------------------------------|-------------------------------------------|
G-2-3-1-2-0-1-------------------|-------------------------------------------|   
D-------------4-5-3-4-2-3-1-2-1-|-0-0-0-0-0-0-0-0--1-0-0--1-0-0--1-0-0--1-0-0
 			       PM.............................................         
:::every year it fucking stays the same:::::::


Chorus
D------------------------------|--------------------------------------------|
A------------------------------|--------------------------------------------|
F------------------------------|--------------------------------------------|
C------------------------------|--------------------------------------------|
G------------------------------|--------------------------------------------|
D--0-0-0-0-0-6-(0)-0-0-0------|-5-5-0-8/-(5)-5-5-0-8/-(5)------------------|
PM .......................


D---------------------------------------------|-------------------------|
A---------------------------------------------|-------------------------|
F---------------------------------------------|-------------------------|
C--------------------------------------2------|-------------------------|
G-7^-6^-5^--4^-3^-2^-1^----------------2------|-------------------------|
D-----------------------5^-4^-3^-2^-1^-0------|-------------------------|

 That was all for now


Текст, аккорды и табулатура для песни "Well Grind That Axe For A Long Time", исполняет "Pantera".
Используемые в песне аккорды можно найти в разделе Как брать аккорды. Аккорды для шестиструнной гитары. Другие песни можно найти на нашем сайте, воспользовавшись алфавитным указателем вверху страницы.


 
Ошибка в тексте? Выделите ошибку и нажмите Ctrl+Enter