band-pantera
song-war nerve
album the great southern trendkill
tabbed by godsmackthatkid


Intro                                           
|---------------------------------------------------|
|---------------------------------------------------|
|---------------------------------------------------|
|-/7b---7--5--2----8----7----5----2----/7b---7--5---|
|--x----x--x--2----x----x----x----2-----x----x--x --|
|-/5b---5--3--0----6----5----3----0----/5b---5--3---|
                             
|--------------------------------------------|
|--------------------------------------------|
|--------------------------------------------|
|-2--8--7--5--2----/7----7--5--2----8--7--5--|
|-2—-x--x--x--2-----x----x--x--2----x--x--x--|
|-0--6--5--3--0----/5----5--3--0----6--5--3--|

|------------------------------------------|
|------------------------------------------|
|------------------------------------------|
|-2--/7b----7--5--2----8--7--5--2----3--3--|
|-2—--x-----x--x--2----x--x--x--2----3--3--|
|-0--/5b----5--3--0----6--5--3--0----1--1--|
                   
|---------------------------------------------------------|
|---------------------------------------------------------|
|---------------------------------------------------------|
|------------------7------3----2-2-2-2--2-2-2-2-2-2----5b-|
|----10----10------7------3----2-2-2-2--2-2-2-2-2-2----x--|
|----8------7------5------1----0-0-0-0--0-0-0-0-0-0--x-3b-|
                             
|-----------------------------------------------------------------|
|-----------------------------------------------------------------|
|-----------------------------------------------------------------|
|--2-2-2-2--2-2-2-2-2-2---------7b--2-2-2-2--2-2-2-2-2-------5b---|
|--2-2-2-2--2-2-2-2-2-2---------x---2-2-2-2--2-2-2-2-2-------x----|
|--0-0-0-0--0-0-0-0-0-0-----x---5b--0-0-0-0--0-0-0-0-0---x---3b---|

|-----------------------------------------------------------|
|-----------------------------------------------------------|
|-----------------------------------------------------------|
|---2-2-2-2--2-2-2-2-2-------7b----2-2-2-2--2-2-2-2-2--8----|
|---2-2-2-2--2-2-2-2-2-------x-----2-2-2-2--2-2-2-2-2--x----|
|---0-0-0-0--0-0-0-0-0--x----5b----0-0-0-0--0-0-0-0-0--6----|

|---------------------------------|
|---------------------------------|
|---------------------------------|
|---2-2-2-2--2-2-2-2-2------13b---|x4
|---2-2-2-2--2-2-2-2-2-------x----|
|---0-0-0-0--0-0-0-0-0---x--11b---|

|------------------------------|
|------------------------------|
|------------------------------|
|--2-2-2-2--2-2-2-2-2--------3-|x5
|--2-2-2-2--2-2-2-2-2--------x-|
|--0-0-0-0--0-0-0-0-0--x-----1-|

|--------------------------------------------------------------|
|--------------------------------------------------------------|
|--------------------------------------------------------------|
|--2-2-2-2--2-2-2-2-2--------3---2-2-2-2--2-2-2-2-2-------/13--|x2
|--2-2-2-2--2-2-2-2-2--------x---2-2-2-2--2-2-2-2-2--------x---|
|--0-0-0-0--0-0-0-0-0--x-----1---0-0-0-0--0-0-0-0-0--x----/11--|

chorus
|-------------------------------------------------------------|
|-------------------------------------------------------------|
|-------------------------------------------------------------|
|-----4-4b-4-2h4-------------------------------5-7b-7-5h-7----|
|-------------------------------------------------------------|
|--0--------------6---(6)--6/9--6--3p2--0--(0)--------------6-|

|------------------------------------------------------------------|
|------------------------------------------------------------------|
|------------------------------------------------------------------|
|-----------------------------4--4b----4—2h4-----------------------|
|------------------------------------------------------------------|
|-(6)--6/9--6--3p2-0---(0)--------------------6—--(6)—6/9-6—-3p2-0-|
                                                
Interlude 1&2
riff a             
--------------------------------------------------------------|
--------------------------------------------------------------|
--------------------------------------------------------------|
----------------------------------/7b--7--5-------------------|
-----------------------------------x---x--x-------------------|
-11b--0--11—-11b—0--11----/11b----/5b--5--3--11b-0-11—11b-----|


|------------------|
|------------------|
|------------------|
|------------------|
|----------9--3--3-|
|-/11b--0--7--1--1-|


interlude 3                     riff b 
--------------------------------|------------------------------|
--------------------------------|------------------------------|
-*-----------------------------*|-*----------------------------|
--------------------------------|------------------------------|
-*-----------------------------*|-*---------------------7----6-|
--0--3-3-3-3-3-3-3p0-3-3-3p0-3-3|-0--0-0-0-0-0-0-2h3-2----0----|


                            
|------------------------------|------------------|
|------------------------------|------------------|
|-----------------------------*|-*---------------*|
|------------------------------|------------------|
|-----------------------------*|-*--------2--3---*|
|--0--0-0-0-0-0-0-5h6-5-3-0-3b-|--11--1--------1-|


Outro                                              
|------------------------|-------------------------|
|------------------------|-------------------------|
|*-----------------------|-------------------------|
|------------------------|-------------------------|
|*-2-2-2-2-2-2-2--8-8-7-5|--2-2-2-2-2---8-8-8-7--5-|
|--0-0-0-0-0-0-0--6-6-5-3|--0-0-0-0-0-0-6-6-6-5--3-|

|-------------------------|-------------------------|---------|
|-------------------------|-------------------------|---------|
|------------------------*|-------------------------|---------|
|-------------------------|-------------------------|--2------|
|-2-2-2-2-2-2-2-3-3-3-3-3*|-2-2-2-2-2-2-3-3-3-3-3-3-|--2------|
|-0-0-0-0-0-0-0-1-1-1-1-1-|-0-0-0-0-0-0-1-1-1-1-1-1-|--0------|


Текст, аккорды и табулатура для песни "War Nerve", исполняет "Pantera".
Используемые в песне аккорды можно найти в разделе Как брать аккорды. Аккорды для шестиструнной гитары. Другие песни можно найти на нашем сайте, воспользовавшись алфавитным указателем вверху страницы.


 
Ошибка в тексте? Выделите ошибку и нажмите Ctrl+Enter