Author/Artist: Pantera
Title: Throes of Rejection
Album: Far Beyond Driven
Transcribed by: Alex
Email: [email protected]

This is the whole song except the solo.  I got it from the guitar book so it should be correct

------------------------------------------------------------------------------
------------------------------------------------------------------------------
-9--------3-7-6----3-7----------------------3-7-6---------------3-7-6---------
-9--------------3------/5----------------4--------3-------------------4-4b----
-7------------------------------4--------------------5--------4---------------
-0------------------------3-7-6----3-7-6----------------3-7-6--------------3--
 w/ wah   This is the intro part with notes that are half and whole notes.    

------------------------------------------------------------------------------
------------------------------------------------------------------------------
------------------------------------------------------------------------------
------------------------------------------------------------------------------
-----5-5b---------------------------------------------------------------------
-7-6--------------------------------------------------------------------------
 Figure out the rhythm of it.  I didn't space them out accordingly            

------------------------------------------------------------------------------
------------------------------------------------------------------------------
------------------------------------------------------------------------------
------------------------------------------------------------------------------
-3--3333--33-3--------------------------3--3333-3--3--------------------------
-1--1111--11-1--------------------------1--1111-1--1--------------------------
 pm---------- play 7x then next riff               THIS IS FEEDING WHAT I AM  

------------------------------------------------------------------------------
------------------------------------------------------------------------------
------------------------------------------------------------------------------
------------------------------------------------------------------------------
-3--3333-33-3--3335--33335-3-7-8-7--3335---3335--3335-3-7-8-9-----------------
-1--1111-11-1--1113--11113-1-5/65--1113---1113--1113-1-5/6/7-----------------
    Figure out how many times to do these riffs and stuff                     

------------------------------------------------------------------------------
------------------------------------------------------------------------------
--3-7-6-----------3-7---------------------------------3-----7-6---------------
--------3-------------5-4----------4---4---4b-------3-----------4-4b----------
----------------4---------------5----5---5--------------4----------------5----
----------3-7-6-----------3-7-6---------------3-7-6-------3----------7-6------
  w/ wah  VERSE RIFF                                                          

------------------------------------------------------------------------------
------------------------------------------------------------------------------
-------------------5-----------3-----------5----------------------------------
-------------------5v----------3v----------5v---------------------------------
-5b------2-2-2-2-2---2-2-2-2-2---2-2-2-2-2----2-2-2-2-2-----------------------
---------0-0-0-0-0---0-0-0-0-0---0-0-0-0-0----0-0-0-0-0-----------------------
        CHORUS: RE-JEC-TION  After this go back in to F power chord riff      

------------------------------------------------------------------------------
------------------------------------------------------------------------------
------------------------------------------------------------------------------
------------------------------------------------------------------------------
-----5-3----------------------------------------------------------------------
----/3-1----------------------------------------------------------------------
 Fill: SHORT FUSE!!!!                                                         

-------------------------------------------------------------x----------------
-------------------------------------------------------------x----------------
------------------------------------------------------------------------------
------------------------------------------------------------------------------
-2-2-2-2-------------2-2-2-------------2-2-2-2-------------2------------------
-0-0-0-0-6b-5b-4b-3b-0-0-0-6b-5b-4b-3b-0-0-0-0-6b-5b-4b-3b-0------------------
 The end riff (one of the coolest riffs) Open E's are muted  Strike sirings   

------------------------------------------------------------------------------
------------------------------------------------------------------------------
------------------------------------------------------------------------------
------------------------------------------------------------------------------
------------------------------------------------------------------------------
---------------------------6b-------------------------------------------------
 on other side of the nut  Last note with feedback


Текст, аккорды и табулатура для песни "Throes Of Rejection", исполняет "Pantera".
Используемые в песне аккорды можно найти в разделе Как брать аккорды. Аккорды для шестиструнной гитары. Другие песни можно найти на нашем сайте, воспользовавшись алфавитным указателем вверху страницы.


 
Ошибка в тексте? Выделите ошибку и нажмите Ctrl+Enter