Suicide Note Pt. I
PanterA
Tabbed by TooTH-PiCK ([email protected])

. = Palm Mute
b = Bend
r = Realese Bend
h = Hammer On
p = Pull Off
* = Whammy Bar Stuff
[]= Harmonic


*** DROP D TUNING ***
6=D  3=G
5=A  2=B
4=D  1=E

12 string acoustic
|Riff A-------------------------|Gtr. 2 w/Riff A
||-----------------------------||----------------------------------------3-|
||-----------------------------||-------------3---------------3-----3----3-|
||-----------------------------||-9/10---7/9-----5/7-----3/5-----3----3----|
||----3/5-3--2h3-2-----0-----0-||------------------------------------------|
||-----------------0h1---1/3---||------------------------------------------|
||-0---------------------------||------------------------------------------|

*VERSE*
Fig. 1
||-------------------------------|----------------------------------|
||*-2-----2-2-0----0-2-----2-2-0-|-2------2----0----2----2----2-0-0-|
||--0-----0-0-0----0-0-----0-0-0-|-0------0----0----0----0----0-0-0-|
||*-0---0-0---0------0---0-0---0-|-0---0--0----0----0----0----0-0-0-|
||--5---5-5---5------5---5-5---5-|-5---5--5----5----5----5----5-5-5-|
||--5---5-4---5------5---5-5---5-|-5---5--5----5----5----5----5-5-5-|

                                                            End Fig. 1
|----------------------------------|----------------------------------|
|----------------------------------|----------------------------------|
|--------------------------0-------|--------------------------0-------|
|----4/5-4----2/4-2--------0-----0-|----4/5-4----2/4-2--------0-----0-|
|----------------------0h2---2/4---|----------------------0h2---2/4---|
|-0--------------------------------|-0--------------------------------|

*Pre Chorus*
When im hiding  when i need it.....
|--------3----------------------3--3----------|----------------------------|
|--------3----------------------3--3----------|----------------------------|
|--------0----------------------0--0h2--------|--------------------------0-|
|-0---0--0-------0---0-------0--0--0--2b--(2)-|----4h5-4h5-2----4h5-4--2-0-|
|-x---x----------x---x-------x-----x--x-------|--------------------------x-|
|-3---3----------3---3-------3-----3--3b--(2)-|-0------------0-----------3-|

|-----------3--------------------3--3---------|---------------2--|
|-----------3--------------------3--3---------|---------------3--|
|-(0)-------0----0---------------0--0h2-------|---------------2--|
|-(0)-0--0--0----0----0----0--0--0--0--2b-(2)-|----4h5-4p0-2--0--|
|-----x--x------------x----x--x--------x------|------------------|
|-(3)-3--3------------3----3--3--------3b-(2)-|-0----------------|

*CHORUS*
|-2----2---2--2-----------------------|----2------2----------------------------|
|-3----3---3--3-----3---3--3--3--3--3-|----3------3----------3----3--3--3----3-|
|-2----2---2--2-----0---0--0--0--0--0-|----2------2------2---0----0--0--0----0-|
|-0----0---0--0--0--0---0--0-----0--0-|-0--0------0------0---0----0-----0----0-|
|-0----0---------x---------x-----x--x-|-0---------0----------x----------x------|
|-0----0---------3---------2-----2--2-|-0---------0----------2----------3------|

|----2----2----2--2----------------------|-2--2----2--2----2-------------------------|
|----3----3----3--3--3--3----3--3--3---3-|-3--3----3--3----3--3--3---3-----3----3--3-|
|----2----2----2--2--0--0----0--0--0---0-|-2--2----2--2----2-----0---0-----0----0--0-|
|-0--0----0----0--0--0--0----0--0--0---0-|-0--0----0--0----0-----0---0-----0----0--0-|
|-0-------0----------x----------x--------|-0----------0----------x---------x---------|
|-0-------0----------3----------2--------|-0----------0----------2---------3---------|

Riff A then:

|------------------------------|---------------2-|
|------------------------------|---------------3-|
|----------------------0-------|---------------2-|
|----3/5-3--2/3-2------0-----0-|---4h5-3----2--0-|
|------------------0h1---1/3---|-----------------|
|-0----------------------------|-0---------------|

*OUTRO*
Riff A then:
Play this with Riff A:
*fill 1*
|------------------------------------|----------------------------------|
|------------------------------------|----------------------------------|
|---[7]~~~-------5~~~---(5)/9b--(9r)-|---------9b-(9r)------------------|
|--x---------------------------------|-9~~~-------------8~~~------(8)5-|
|-x----------------------------------|----------------------------------|
|------------------------------------|----------------------------------|

|-------------------------------|-------------------------|-----|
|----------------------8--------|-------------------------|-----|
|-5/7----[7]~~~---5----9b--(9r)-|---------9------------4*-|-(4)-|
|-------------------------------|-9~~~----------8---------|-----|
|-------------------------------|-------------------------|-----|
|-------------------------------|-------------------------|-----|

Last note in song:
|-1-|
|-3-|
|-2-|
|-0-|
|-0-|
|-0-|

///////////////////////////////////////
That would be all of this song. This song is awsome! As are all pantera songs!
TooTH-PiCK
[email protected]

[email protected]--
Archived by: -=UMS=- http://members.tripod.com/~ums02/pantera


Текст, аккорды и табулатура для песни "Suicide Note Part I", исполняет "Pantera".
Используемые в песне аккорды можно найти в разделе Как брать аккорды. Аккорды для шестиструнной гитары. Другие песни можно найти на нашем сайте, воспользовавшись алфавитным указателем вверху страницы.


 
Ошибка в тексте? Выделите ошибку и нажмите Ctrl+Enter