Song: Regular People (Conciet) - from the best damn pantera album ever!
Artist: Pantera
Tabber: Niall 'Clitz' ([email protected])
Tuning: STANDARD (G, D, A, E)
Note: this ones for chovav, you requested it, so here it is play till your
hearts content, no weird tunings, standard is fine.
up and down picking recommend, it takes a while to get to grips with it 
but it can be done - Rex basically follows the guitar.
these are the main licks, their maybe other riffs i forgot to add but they're 
probably insignificant and easy to figure out by yourself.
corrections, comments, requests and all that other shit is welcome


|G|------------------------------------------------------------------------
D------------------------------------------------------------------------
|A|------------------------------------------------------------------------
E------------------------------------------------------------------------

intro 
|G|------------------------------------|
D------------------------------------|
|A|------------------------------------|
E-0-0-0-0-0-0-0-0-0-0-0-0-0-0-0-0----|

Difficult lick (there is a way round this if you cant get it, just play open E's to
the rythem)
|G|----------------------------------------------------------------|
D----------------------------------------------------------------|
|A|----------8p7------------7---------------7p5------------5-------|
E--0--0-0-------0--0--7h8---0-5h6--0--0-0------0--0--5h6---0-3h5-|

|G|------------------------------------------------------------|
D------------------------------------------------------------|
|A|----------7h8------------7----------------------------------|
E--0--0-0-------0--0--7h8---0-0-4--0-0-5--0-0-6--0-0-3--0-0-1|

The not so difficult riff (the second one, if bends down sound right do slides )
|G|---------------------------------------------------------------|
D---------------------------------------------------------------|
|A|---------------------------------------------------------------|
E--0--0-0--0-0--0-0-0--3b--0--0-0--0-0-0--5b--0--0-0--0-0-0--6b-|

|G|---------------------------------|
D---------------------------------|
|A|---------------------------------|
E--5--5-5--6--6-6--3--3-3--1--1-1-|

I think that does it, enjoy it, its a good song and one fuckin good album!
until the next good request, signing off.


Текст, аккорды и табулатура для песни "Regular People", исполняет "Pantera".
Используемые в песне аккорды можно найти в разделе Как брать аккорды. Аккорды для шестиструнной гитары. Другие песни можно найти на нашем сайте, воспользовавшись алфавитным указателем вверху страницы.


 
Ошибка в тексте? Выделите ошибку и нажмите Ctrl+Enter