PSYCHO HOLIDAY - BASS
                          ---------------------
 Note lengths are written below the measures :
   w - whole note
   h - half note
   q - quarter note
   e - eight note
   s - sixteenth note
   t - thirty-second note

 Rest are noted as capitalized note lengths ie:
   W - whole rest
   H - half rest
   Q - quarter rest
   E - eight rest
   S - sixteenth rest
   T - thirty-second rest

 + is used to show slurs between notes, eg slide up from 5 to 7 without
  picking the 7 would be notated like :
   |---5/7----
       e+e
   sliding up with picking the 7 would be notated like :
   |---5/7----
       e e

 Notes without a note length are cue notes.


  h - hammer on
  p - pull off
  b - bend (amount of bend above the measure)
  r - release bend
  x - muffled string
  / - slide up
   - slide down
  ~ - vibrato (vib. above a measure means a more exaggerated vibrato)

 16th note triplet feel ( s s = e s )
                                {3}

|-------------------------------------|-----|-----|-----||
|-------------------------------------|-----|-----|-----||
|-------------------------------------|--|--|--||
|-2-2-2-2-2-2-2-2-2-2-2-2-2-2-2-2-2-2-|-----|-----|-----||
  s s s s s s s s s s s s s s s s s s
  { 3 }             { 3 }

                                             8x
||-------------------------------------------||
||o-----------------------------------------o||
||o-----------------------------------------o||
||--4-4-4-4-4-4-4-4-4-4-4-4-4-4-4-4-4-4-4-4--||
    s s s s s s s s s s s s s s s s s s s s
    { 3 }     { 3 }     { 3 }     { 3 }

                                   9/8
|----------------------|-----|-----|------------------------||
|-6--------6---------|-----|-----|-6--------6-----------||
|------2---------2---5-|--|--|------2---------2---5---||
|--------4---------4---|-----|-----|--------4---------4-----||
  q    s e. q    s s e               q    s e. q    s s e E

 4/4
  verse 1
|-------------------------------------|-----|-----|-----|-----|-----|
|-------------------------------------|-----|-----|-----|-----|-----|
|-------------------------------------|--|--|--|--|--|
|-0-0-0-0-0-0-0-0-0-0-0-0-0-0-0-0-0-0-|-----|-----|-----|-----|-----|
  s s s s s s s s s s s s s s s s s s
  { 3 }             { 3 }

|-----|-----|----------------------|-------------------------------------|
|-----|-----|-6--------6---------|-------------------------------------|
|--|--|------2---------2---5-|-------------------------------------|
|-----|-----|--------4---------4---|-0-0-0-0-0-0-0-0-0-0-0-0-0-0-0-0-0-0-|
              q    s e. q    s s e   s s s s s s s s s s s s s s s s s s
                                     { 3 }             { 3 }

                                         2/4          4/4
|-----|----------------------|-----|-----|-----------|------------------||
|-----|-6--------6---------|-----|-----|-6--------|------------------||
|--|------2---------2---5-|--|--|------2----|-7-7-7-7-7-7-7---||
|-----|--------4---------4---|-----|-----|--------4--|------------------||
        q    s e. q    s s e               q    s e.   e e e e e e q  Q
                                                       { 3 } { 3 }

  chorus
|---------------------------------|-----|-----|-----|-----|-----|-----|
|---------------------------------|-----|-----|-----|-----|-----|-----|
|---------------------------------|--|--|--|--|--|--|
|-3-3-3-3-3-3-3-3-3-3-3-3-3-3-3-3-|-----|-----|-----|-----|-----|-----|
  s s s s s s s s s s s s s s s s

|-----------------------------------||
|-----------------5-5-5-5-5-5-5-5-5-||
|-----------------------------------||
|-3-3-3-3-3-3-3-3-------------------||
  s s s s s s s s s s s s s s s s e
                  { 3 }     { 3 }

  verse 2
|-------------------------------------|-----|-----|-----|-----|-----|
|-------------------------------------|-----|-----|-----|-----|-----|
|-------------------------------------|--|--|--|--|--|
|-0-0-0-0-0-0-0-0-0-0-0-0-0-0-0-0-0-0-|-----|-----|-----|-----|-----|
  s s s s s s s s s s s s s s s s s s
  { 3 }             { 3 }

|-----|-----|----------------------|-------------------------------------|
|-----|-----|-6--------6---------|-------------------------------------|
|--|--|------2---------2---5-|-------------------------------------|
|-----|-----|--------4---------4---|-0-0-0-0-0-0-0-0-0-0-0-0-0-0-0-0-0-0-|
              q    s e. q    s s e   s s s s s s s s s s s s s s s s s s
                                     { 3 }             { 3 }

                                         2/4          4/4
|-----|----------------------|-----|-----|-----------|------------------||
|-----|-6--------6---------|-----|-----|-6--------|------------------||
|--|------2---------2---5-|--|--|------2----|-7-7-7-7-7-7-7---||
|-----|--------4---------4---|-----|-----|--------4--|------------------||
        q    s e. q    s s e               q    s e.   e e e e e e q  Q
                                                       { 3 } { 3 }

  chorus
|---------------------------------|-----|-----|-----|-----|-----|-----|
|---------------------------------|-----|-----|-----|-----|-----|-----|
|---------------------------------|--|--|--|--|--|--|
|-3-3-3-3-3-3-3-3-3-3-3-3-3-3-3-3-|-----|-----|-----|-----|-----|-----|
  s s s s s s s s s s s s s s s s

|------------||
|------------||
|------------||
|-3-------x/-||
  e E Q Q q

 solo
|---------------------------|---------------------------|
|---------------------------|---------------------------|
|---------7-------------5/-|---------7----------------|
|-0-0-0-0----0-0-0-0-0-0----|-0-0-0-0----0-0-0-0-0-0-4/-|
  s s s s e  s s s s s s q    s s s s e  s s s s s s q

|-------------------------|------------------||
|-------------------------|------------------||
|---------7-------4-2---2-|---------7-------||
|-0-0-0-0---0-0-------4---|-0-0-0-0----0-1-2-||
  s s s s e s s E e s s e   s s s s q  q q q
                                       { 3 }

|-------------------------------|---------------------------|-----|
|-------------------------------|---------------------------|-----|
|---------------------------1-1-|-----------------------1-1-|--|
|-3-3-3-3-3-3-3-3-3-3-3-3-3-----|---3-3-3-3-3-1-3-3-1-3-----|-----|
  s s s s s s s s s s s s s e s + e e s s s s s s s s s e s +     +

|---------------------------||---------------------------|
|---------------------------||---------------------------|
|---------------------------||---------7-------------5/-|
|---3-3-3-3-3-3-3-3-3-3-3-1-||-0-0-0-0----0-0-0-0-0-0----|
+ e e s s s s s s s s e e e    s s s s e  s s s s s s q
                      { 3 }

|---------------------------|-----------------------------|
|---------------------------|-----------------------------|
|---------7----------------|---------7-----4---4---2-----|
|-0-0-0-0----0-0-0-0-0-0-4/-|-0-0-0-0---0-0---0---0---3-4-|
  s s s s e  s s s s s s q    s s s s e s s s s s s s s e

|---------------------||-------------------------------|
|---------------------||-------------------------------|
|---------7----------||---------------------------1-1-|
|-0-0-0-0------0--1-2-||-3-3-3-3-3-3-3-3-3-3-3-3-3-----|
  s s s s q  S e. e e    s s s s s s s s s s s s s e s +

|---------------------------|-----|---------------------||
|---------------------------|-----|---------------------||
|-----------------------1-1-|--|---------------------||
|---3-3-3-3-3-1-3-3-1-3-----|-----|---3-3-3-3-3-1-3-3-4-||
+ e e s s s s s s s s s e s +     + e e e e e e e e e e
                                            { 3 } { 3 }

|-------------------|-------------------|-----------------|
|-------------------|-------------------|---------------0-|
|-0-0-0-0-0-0-0-3-3-|---0-0-0-0-0-0-3-3-|---2-2-2-2-2-2---|
|-------------------|-------------------|-----------------|
  e e e e e e s e s + e e e e e e s e s + e e e e e e e e

|---------------------||
|-0-0-0-0-0-0-0-------||
|-----------------x--||
|---------------------||
  e e e e e e e E q
  { 3 } { 3 }

  verse 3
|-------------------------------------|-----|-----|-----|-----|-----|
|-------------------------------------|-----|-----|-----|-----|-----|
|-------------------------------------|--|--|--|--|--|
|-0-0-0-0-0-0-0-0-0-0-0-0-0-0-0-0-0-0-|-----|-----|-----|-----|-----|
  s s s s s s s s s s s s s s s s s s
  { 3 }             { 3 }

|-----|-----|----------------------|-------------------------------------|
|-----|-----|-6--------6---------|-------------------------------------|
|--|--|------2---------2---5-|-------------------------------------|
|-----|-----|--------4---------4---|-0-0-0-0-0-0-0-0-0-0-0-0-0-0-0-0-0-0-|
              q    s e. q    s s e   s s s s s s s s s s s s s s s s s s
                                     { 3 }             { 3 }

                                         2/4          4/4
|-----|----------------------|-----|-----|-----------|------------------||
|-----|-6--------6---------|-----|-----|-6--------|------------------||
|--|------2---------2---5-|--|--|------2----|-7-7-7-7-7-7-7---||
|-----|--------4---------4---|-----|-----|--------4--|------------------||
        q    s e. q    s s e               q    s e.   e e e e e e q  Q
                                                       { 3 } { 3 }

  chorus
|---------------------------------|-----|-----|-----|-----|-----|-----|
|---------------------------------|-----|-----|-----|-----|-----|-----|
|---------------------------------|--|--|--|--|--|--|
|-3-3-3-3-3-3-3-3-3-3-3-3-3-3-3-3-|-----|-----|-----|-----|-----|-----|
  s s s s s s s s s s s s s s s s

|---------------------------------||-------------------|-----------------|
|---------------------------------||-------5-----------|-----------------|
|---------------------4-3-1-3-----||-------------------|-----------------|
|-3-3-3-3-3-3-3-3-3-3---------1-2-||-3-3-3---3-3-3-1-2-|-3-3-3-3-3-3-3-3-|
  s s s s s s s s s s e e e e e e    e e e e e e e s s   e e e e e e e e
      { 3 }     { 3 } { 3 } { 3 }

|-------------------|-----------------------|-----------------|
|-------------------|-------------------3-5-|-----------------|
|-------------------|-----------4-3-1-3-----|-----------------|
|-3-3-3-3-3-3-3-1-2-|-3-3-3-3-3-------------|-3-3-3-3-3-3-3-3-|
  e e e e e e e s s   e e s s e e e e e e e   e e e e e e e e
                                { 3 } { 3 }

|-------------------|-----------------|--------||
|-------------------|-----------------|--------||
|-------------------|-----------------|--------||
|-3-3-3-3-3-3-3-1-2-|-3-3-3-3-3-3-3-3-|-3------||
  e e e e e e e s s   e e e e e e e e   q  Q H

 ( s s = s s )
  outro
|---------------------------------|---------------------------------|
|---------------------------------|---------------------------------|
|-1-1-1-1-1-1-1-1-1-1-1-1-1-1-1-1-|-0-0-0-0-0-0-0-0-0-0-0-0-0-0-0-0-|
|---------------------------------|---------------------------------|
  s s s s s s s s s s s s s s s s   s s s s s s s s s s s s s s s s

|---------------------------------|---------------------------------|
|---------------------------------|---------------------------------|
|---------------------------------|---------------------------------|
|-4-4-4-4-4-4-4-4-4-4-4-4-4-4-4-4-|-3-3-3-3-3-3-3-3-3-3-3-3-3-3-3-3-|
  s s s s s s s s s s s s s s s s   s s s s s s s s s s s s s s s s

|---------------------------------|---------------------------------|
|---------------------------------|---------------------------------|
|-1-1-1-1-1-1-1-1-1-1-1-1-1-1-1-1-|-0-0-0-0-0-0-0-0-0-0-0-0-0-0-0-0-|
|---------------------------------|---------------------------------|
  s s s s s s s s s s s s s s s s   s s s s s s s s s s s s s s s s

|---------------------------------|-----------------------|
|---------------------------------|-----------------------|
|---------------------------------|-----------------------|
|-4-4-4-4-4-4-4-4-4-4-4-4-4-4-4-4-|-3--3--3-1--3--3--3-2--|
  s s s s s s s s s s s s s s s s   e  e  s e. e  e  s e.

|---------------------------------|---------------------------------|
|---------------------------------|---------------------------------|
|-1-1-1-1-1-1-1-1-1-1-1-1-1-1-1-1-|-0-0-0-0-0-0-0-0-0-0-0-0-0-0-0-0-|
|---------------------------------|---------------------------------|
  s s s s s s s s s s s s s s s s   s s s s s s s s s s s s s s s s

|---------------------------------|---------------------------------|
|---------------------------------|---------------------------------|
|---------------------------------|---------------------------------|
|-4-4-4-4-4-4-4-4-4-4-4-4-4-4-4-4-|-3-3-3-3-3-3-3-3-3-3-3-3-3-3-3-3-|
  s s s s s s s s s s s s s s s s   s s s s s s s s s s s s s s s s

|---------------------------------|---------------------------------|
|---------------------------------|---------------------------------|
|-1-1-1-1-1-1-1-1-1-1-1-1-1-1-1-1-|-0-0-0-0-0-0-0-0-0-0-0-0-0-0-0-0-|
|---------------------------------|---------------------------------|
  s s s s s s s s s s s s s s s s   s s s s s s s s s s s s s s s s

|---------------------------------|-----------------------|
|---------------------------------|-----------------------|
|---------------------------------|-----------------------|
|-4-4-4-4-4-4-4-4-4-4-4-4-4-4-4-4-|-3--3--3-1--3--3--3-2--|
  s s s s s s s s s s s s s s s s   e  e  s e. e  e  s e.

|-----------------|---------------------|-------||
|-----------------|---------------------|-------||
|-----------------|-1-------------------|-1-----||
|-3---3---3---3---|---------------------|---3---||
  e E e E e E e E                         e e

Contributed by Wilbert Pol

http://members.tripod.com/~ums1


Текст, аккорды и табулатура для песни "Psycho Holiday", исполняет "Pantera".
Используемые в песне аккорды можно найти в разделе Как брать аккорды. Аккорды для шестиструнной гитары. Другие песни можно найти на нашем сайте, воспользовавшись алфавитным указателем вверху страницы.


 
Ошибка в тексте? Выделите ошибку и нажмите Ctrl+Enter