================================================================================
         Title : Medicine man
        Artist : Pantera
         Album : Cowboys From Hell
Transcribed by : By DimeBolt ([email protected])
[email protected]===============

Legend
------

 h  = hammer-on
 p  = pull-off
 /  = slide up/down
 ~  = vibrato
N.H = Natural Harmonic


Dropped D Tuning (D,A,D,G,B,E)

   Intro and chorus
1||-----------------|-----------------||-----------------|-----------------||
2||-----------------|-----------------||-----------------|-----------------||
3||-----------------|-------___N.H___-||-----------------|-----------------||
4||-----------------|-------5-5-5-5-5-||-----------------|-----------------||
5||-0-0-0-0-0-0-0-2-|---3-------------||-------2p0-3-----|-----2p0-3-------||
6||-0-0-0-0-0-0-0-2-|---3-------------||-0-2-3---------0-|-2-3-------------||

   Ending                         Fill 1 (Two guitars)
1||-----------------|-----------||--------------------|--------------------------||
2||-----------------|-----------||-4-6-7-4h5p4--4-----|--------------------------||
3||-----------------|-----------||-5-7-8-5h7p57-5-5-7-|-3h5p32-3-2h3p2---2----||
4||-----------------|-----------||------------8---7-8-|-5h7p53-5-3h5p31---3-3~-||
5||-0-0-0-0-0-0-0-2-|---3---4-5-||--------------------|-----------------------5~-||
6||-0-0-0-0-0-0-0-2-|---3---4-5-||--------------------|--------------------------||

                                        Verse
1||-----------------|-----------------||---------|--------|---------|--------||
2||-----------------|-----------------||---------|--------|---------|--------||
3||-----------------|-----------------||-7-------|--------|-7-------|--------||
4||-7-----5-----4---|-----2-----------||---------|--------|---------|--------||
5||-5-----3-----2---|-----0---5-3-----||-4-------|--------|-5-------|--------||
6||-0---------------|---------5-3-----||---------|--------|---------|--------||

   Verse ending               Solo
1||-----------------||------||------|------||
2||-----------------||------||------|------||
3||-----------------||------||------|------||
4||-----4---4-------||-0----||-6----|-0----||
5||-3-5-2---2-3~----||-0----||-6----|-0----||
6||-3-5-------3~----||-0----||-6----|-0----||

   End of solo
1||-----------------|-----------------|-----------------|-----------------|
2||-----------------|-----------------|-----------------|-----------------|
3||-----------------|-----------------|-----------------|-----------------|
4||-----------------|-----------------|-----------------|-----------------|
5||-6---------6-----|---6-------6-6-6-|-6---------6-----|---6-------6-6-6-|
6||-6-----6-6-6---6-|-6-6---6-6-6-6-6-|-6-----6-6-6---6-|-6-6---6-6-6-6-6-|


1||-----------------|-----------------|-----------------|------------------||
2||-----------------|-----------------|-----------------|------------------||
3||-----------------|-----------------|-----------------|------------------||
4||-----------------|-----------------|-----------------|------------------||
5||-8---------8-----|---8-------8-8-8-|-9---------9-----|---10-------5--3-||
6||-8-----8-8-8---8-|-8-8---8-8-8-8-8-|-9-----9-9-9---9-|-9-10-------5--3-||

   Fill 2 (Two guitars)
1||--------------------|------------------||
2||-4-6-7-4h5p4--4-----|------------------||
3||-5-7-8-5h7p57-5-5-7-|-3-5---3----------||
4||------------8---7-8-|-5-7-7-5-5-7-3~---||
5||--------------------|-----8---6-8-5~---||
6||--------------------|------------------||

   Outro solo
1||-----------------|-----------------||-----------------|-----------------||
2||-----------------|-----------------||-----------------|-----------------||
3||-----------------|-----------------||-----------------|-----------------||
4||-----------------|-----------------||-----------------|-----------------||
5||-6---------6-----|---6-------6-6-6-||-0---------------|-----------0-0-0-||
6||-6-----6-6-6---6-|-6-6---6-6-6-6-6-||-0-----0-0-0-0-0-|-0-0-0-0-0-0-0-0-||


Текст, аккорды и табулатура для песни "Medicine Man", исполняет "Pantera".
Используемые в песне аккорды можно найти в разделе Как брать аккорды. Аккорды для шестиструнной гитары. Другие песни можно найти на нашем сайте, воспользовавшись алфавитным указателем вверху страницы.


 
Ошибка в тексте? Выделите ошибку и нажмите Ctrl+Enter