Pantera - I'll Cast a Shadow
Ben ([email protected])
Drop D down 1 step
for more tabs http://go.to/tab_zone

Intro
  p.m......   .....  ..  3x .....      Uh!
|--------------------------|-------------|
|--------------------------|-------------|
|----------10-------7---7--|------8~~~~--|
|----------10-------7---7--|------8~~~~--|
|----------8--------5---5--|------6~~~~--|
|--0-0-0-0----0-0-0---0----|--0-0--------|

Chorus                 __________________________________________________
p.m........  .......   1.                      | 2.                      |
|----------------------------------------------|-------------------------|
|----------------------------------------------|-------------------------|
|----------10-------7---------3----------------|----------------------3--|
|----------10-------7-------3------------------|--------------------3----|
|----------8--------5-----1---------3--5p3-----|------3--5p3------1------|
|--0-0-0-0----0-0-0---0-3-------3/5--------5~~-|--3/5--------5--3--------|

Verse pt.1
          p.m...                    p.m...
|------------------------------------------------------|
|------------------------------------------------------|
|------------------------------------------------------|
|------------------------------------------------------|
|--3--0-3--0-3-0--/8--6------3--0-3--0-3-0--/8--6--9~--|
|--3--0-3--0-3-0--/8--6------3--0-3--0-3-0--/8--6--9~--|

Fill 1
|--------------------|
|--------------------|
|--------------------|
|--------------------|
|--8--6--8--6--8--6--|
|--8--6--8--6--8--6--|

Verse pt.2
                                                      2x     pick sl.
|------------------------------------------------------|------------|
|------------------------------------------------------|------------|
|------------------------------------------------------|------------|
|------------------------------------------------------|------------|
|--3--0-3--0-3-0--/8--6------3--0-3--0-3-0--/8--6--9~--|--1-----x--|
|--3--0-3--0-3-0--/8--6------3--0-3--0-3-0--/8--6--9~--|--1-----x--|

Interlude pt 1
n.h................2x..................2x..................2x
|-------------------|-------------------|-------------------|
|-------------------|-------------------|-------------------|
|-------------------|-------------------|-------------------|
|-------------------|-------------------|--5---5---5---5----|
|-------------------|--5---5---5---5----|----4---4---4---4--|
|--5-5-5-5-5-5-5-5--|----4---4---4---4--|-------------------|

Breakdown
p.m....................................4x
|--------------------------------------|
|--------------------------------------|
|--------------------------------------|
|--0--3--5--6--5--0--3--5--0--1--3--0--|
|--0--3--5--6--5--0--3--5--0--1--3--0--|
|--0--3--5--6--5--0--3--5--0--1--3--0--|

Breakdown cont'd                       4x
|--------------------------------------|
|--------------------------------------|
|--------------------------------------|
|--0--3--5--6--5--0--3--5--0--1--3--0--|
|--0--3--5--6--5--0--3--5--0--1--3--0--|
|--0--3--5--6--5--0--3--5--0--1--3--0--|

Interlude pt. 2
n.h................2x..................2x
|-------------------|-------------------|
|-------------------|-------------------|
|-------------------|-------------------|
|-------------------|--5---5---5---5----|
|--5---5---5---5----|----4---4---4---4--|
|----4---4---4---4--|-------------------|

Pre-Outro
p.m....................
|-----------------------|
|-----------------------|
|-----------------------|
|-----------------------|
|--9-8-7-6-5-4-3-2-1-0--|
|--9-8-7-6-5-4-3-2-1-0--|

Outro
                 3x
|-----------------|------|
|-----------------|------|
|-----------------|------|
|-----------------|------|
|----5--8p5---8~~-|------|
|--0--------7-----|--7b~-|

Gtr.2

|--22~--17~--18~--13~--------22~--18~--20~--17~-----|
|---------------------14~-----------------------18~-|
|---------------------------------------------------|
|---------------------------------------------------|
|---------------------------------------------------|
|---------------------------------------------------|

for more tabs check out http://go.to/tab_zone


Текст, аккорды и табулатура для песни "Ill Cast A Shadow", исполняет "Pantera".
Используемые в песне аккорды можно найти в разделе Как брать аккорды. Аккорды для шестиструнной гитары. Другие песни можно найти на нашем сайте, воспользовавшись алфавитным указателем вверху страницы.


 
Ошибка в тексте? Выделите ошибку и нажмите Ctrl+Enter