--------------------------------------------|
--------------------7-9-11------------------|
|-6h8p6-6-b9-6-8-----6h8p6-8-10--------910-----10/8/6--|
-----8-(6)----------------------------------|
--------------------------------------------|
--------------------------------------------|

|----9-11-13-14-16-18-13~-------------------------------|
|-7h9------------------------13-----13~----13/9---------|
-------------------15p13--------------------|
--------------------------------------------|
--------------------------------------------|
--------------------------------------------|

--------------------------------------------|
-----------------13-14-16-18~~~-------------|
--------12-14-15----------------------------|
|----------12-14-15-------------------------------------|
|-12-14-15----------------------------------------------|
--------------------------------------------|


Текст, аккорды и табулатура для песни "Dreamer", исполняет "Ozzy Osbourne".
Используемые в песне аккорды можно найти в разделе Как брать аккорды. Аккорды для шестиструнной гитары. Другие песни можно найти на нашем сайте, воспользовавшись алфавитным указателем вверху страницы.


 
Ошибка в тексте? Выделите ошибку и нажмите Ctrl+Enter