Intro (Piano)
         C#
E||-------|----------------------|
B||-------|-------9----9----7----|
G||-------|----------------------|
D||--6----|----------------------|
A||-------|--4-------------------|
E||-------|----------------------|


----------------------|---------------------|
--7----6----6----4----|--4h---6----6--------|
----------------------|---------------------|
----------------------|---------------------|
----------------------|---------------------|
----------------------|---------------------|

               C#
-------------------|----------------------|
-------------------|-------9----9----7----|
-------------------|----------------------|
--------------6----|----------------------|
-------------------|--4-------------------|
-------------------|----------------------|



----------------------|---------------------||
--7----6----6----4----|--4h---6----6--------||
----------------------|---------------------||
----------------------|---------------------||
----------------------|---------------------||
----------------------|---------------------||


 C#                     A#m
Gazing through the window at the world outside,
 C#                    A#m
Wonderin? will mother Earth survive.
 F#                    D#m        G#  F# G#
Hopin?, that mankind will stop abusin? her sometime.
C#                      A#m
After all there?s only just the two of us
   C#                      A#m
And here we are still fightin? for our lives.
 F#                D#m              G#  F# G#
Wathin? all of history repeat itself, time after time.

Chorus:
         C#
I?m just a dreamer,
   A#m       Fm G#
I dream my life away.
         C#
I?m just a dreamer,
    A#m         Fm G#
Who dreams of better days.


I watch the sun Go down like everyone of us
I?m hopin? that the dawn will bring a sign
Of better place for those who will come after us
This time...

Chorus.

D#m                     G#
You?re higher power maybe God or Jesus Christ,
   D#m                  G#
It doesn?t really matter much to me.
   D#m                       G#
Without each other?s help there ain?t a hope for us.
   D#m                  G#
I?m leavin? you and bring a fantasy.

Guitar Solo.
  C#
E||---------------------|
B||---------------------|
G||-----------6----8----|
D||----4/6--------------|
A||---------------------|
E||---------------------|

               A#m
---------------------|--------------------|
---------------------|--------------------|
--8br------6----8----|--------------------|
---------------------|--6/8~~-------------|
---------------------|--------------------|
---------------------|--------------------|


             C#
------------------|---------------------|
------------------|---------------------|
------------------|-----------6----8----|
------------------|----4/6--------------|
------------------|---------------------|
------------------|---------------------|


                A#m
-----------------------|---------------------|
--6----7----9----11----|---------------------|
-----------------------|--8/10~~-------------|
-----------------------|---------------------|
-----------------------|---------------------|
-----------------------|---------------------|


                C#
----------------------|------------------------|
----------------------|------------------------|
----------10p8/6------|------------18----20----|
----------------------|---16/18----------------|
----------------------|------------------------|
----------------------|------------------------|


                  A#m
--------------------18----|----------------------|
--18----19----21----------|--18------------18----|
--------------------------|--20b-----------20b---|
--------------------------|----------------------|
--------------------------|----------------------|
--------------------------|----------------------|


                 Fm
------------------------|------------------------|
--18--------18----------|------------------------|
--20b-------20br----15--|--15br-13h15b-----------|
------------------------|------------------------|
------------------------|------------------------|
------------------------|------------------------|


              G#
--------------------|--------------------|
--------------------|--------------------|
----------15br------|--13~~--------------|
--------------------|--------------------|
--------------------|--------------------|
--------------------|--------------------|



--------------------------------------------------|
--------------------------------------------------|
--------------------------------------17--18--20--|
--------------------------16--18--20--------------|
--------------16--18--20--------------------------|
--16--18--20--------------------------------------|


 C#
|--------------------||
|--------------------||
|--20b---------------||
|--------------------||
|--------------------||
|--------------------||

Piano
E||-------|----------------------|
B||-------|-------9----9----7----|
G||-------|----------------------|
D||--6----|----------------------|
A||-------|--4-------------------|
E||-------|----------------------|

Contrabass
A||-------|--4-------------------|
E||-------|----------------------|

|----------------------|---------------------|
|--7----6----6----4----|--4h---6----6--------|
|----------------------|---------------------|
|----------------------|---------------------|
|----------------------|---------------------|
|----------------------|---------------------|

|--2-------------------|--1------------------|
|----------------------|---------------------|

               C#
|-------------------|----------------------|
|-------------------|-------9----9----7----|
|-------------------|----------------------|
|--------------6----|----------------------|
|-------------------|--4-------------------|
|-------------------|----------------------|

|--0----------------|--4-------------------|
|-------------------|----------------------|

|----------------------|---------------------|---------||
|--7----6----6----4----|--4h---6----6--------|---------||
|----------------------|---------------------|---------||
|----------------------|---------------------|---------||
|----------------------|---------------------|---------||
|----------------------|---------------------|---------||

|--2-------------------|--1------------------|---------||
|----------------------|---------------------|--4------||

If only we could all just find serenity
It will be nice if we could leave as one.
When will all this anger, hate and biggotry
Be gonE?

Chorus:
I?m just a dreamer,
I dream my life away, today.
I?m just a dreamer,
Who dreams of better days, OK.
I?m just a dreamer,
Who searchin? for the way, today.
I?m just a dreamer,
Dreamin? my life away...


Текст, аккорды и табулатура для песни "Dreamer", исполняет "Ozzy Osbourne".
Используемые в песне аккорды можно найти в разделе Как брать аккорды. Аккорды для шестиструнной гитары. Другие песни можно найти на нашем сайте, воспользовавшись алфавитным указателем вверху страницы.


 
Ошибка в тексте? Выделите ошибку и нажмите Ctrl+Enter